  0
SECTION
  2
HEADER
  9
$ACADVER
  1
AC1009
  9
$INSBASE
 10
0.0
 20
0.0
 30
0.0
  9
$EXTMIN
 10
-37.139428864420893
 20
-58.1800357196513
 30
-0.0000000000022887
  9
$EXTMAX
 10
232.15974928265339
 20
43.022844795186749
 30
0.0000000000000001
  9
$LIMMIN
 10
0.0
 20
0.0
  9
$LIMMAX
 10
410.0
 20
287.0
  9
$ORTHOMODE
 70
     1
  9
$REGENMODE
 70
     1
  9
$FILLMODE
 70
     1
  9
$QTEXTMODE
 70
     0
  9
$MIRRTEXT
 70
     1
  9
$DRAGMODE
 70
     2
  9
$LTSCALE
 40
25.0
  9
$OSMODE
 70
    39
  9
$ATTMODE
 70
     1
  9
$TEXTSIZE
 40
5.0
  9
$TRACEWID
 40
0.6
  9
$TEXTSTYLE
  7
TEXT50
  9
$CLAYER
  8
0
  9
$CELTYPE
  6
BYLAYER
  9
$CECOLOR
 62
   256
  9
$DIMSCALE
 40
1.0
  9
$DIMASZ
 40
3.5
  9
$DIMEXO
 40
0.1
  9
$DIMDLI
 40
7.0
  9
$DIMRND
 40
0.0
  9
$DIMDLE
 40
0.0
  9
$DIMEXE
 40
1.8
  9
$DIMTP
 40
0.0
  9
$DIMTM
 40
0.0
  9
$DIMTXT
 40
3.5
  9
$DIMCEN
 40
1.5
  9
$DIMTSZ
 40
0.0
  9
$DIMTOL
 70
     0
  9
$DIMLIM
 70
     0
  9
$DIMTIH
 70
     0
  9
$DIMTOH
 70
     0
  9
$DIMSE1
 70
     0
  9
$DIMSE2
 70
     0
  9
$DIMTAD
 70
     1
  9
$DIMZIN
 70
     0
  9
$DIMBLK
  1

  9
$DIMASO
 70
     0
  9
$DIMSHO
 70
     1
  9
$DIMPOST
  1

  9
$DIMAPOST
  1

  9
$DIMALT
 70
     0
  9
$DIMALTD
 70
     2
  9
$DIMALTF
 40
25.399999999999999
  9
$DIMLFAC
 40
1.0
  9
$DIMTOFL
 70
     0
  9
$DIMTVP
 40
0.0
  9
$DIMTIX
 70
     0
  9
$DIMSOXD
 70
     0
  9
$DIMSAH
 70
     0
  9
$DIMBLK1
  1

  9
$DIMBLK2
  1

  9
$DIMSTYLE
  2
STANDARD
  9
$DIMCLRD
 70
     0
  9
$DIMCLRE
 70
     0
  9
$DIMCLRT
 70
     0
  9
$DIMTFAC
 40
1.0
  9
$DIMGAP
 40
0.09
  9
$LUNITS
 70
     2
  9
$LUPREC
 70
     1
  9
$SKETCHINC
 40
0.1
  9
$FILLETRAD
 40
0.0
  9
$AUNITS
 70
     0
  9
$AUPREC
 70
     0
  9
$MENU
  1
acad
  9
$ELEVATION
 40
0.0
  9
$PELEVATION
 40
0.0
  9
$THICKNESS
 40
0.0
  9
$LIMCHECK
 70
     0
  9
$BLIPMODE
 70
     0
  9
$CHAMFERA
 40
1.0
  9
$CHAMFERB
 40
1.0
  9
$SKPOLY
 70
     0
  9
$TDCREATE
 40
2449016.4831520831
  9
$TDUPDATE
 40
2452677.758670636
  9
$TDINDWG
 40
0.1557259954
  9
$TDUSRTIMER
 40
0.1557259954
  9
$USRTIMER
 70
     1
  9
$ANGBASE
 50
0.0
  9
$ANGDIR
 70
     0
  9
$PDMODE
 70
     0
  9
$PDSIZE
 40
0.0
  9
$PLINEWID
 40
0.0
  9
$COORDS
 70
     0
  9
$SPLFRAME
 70
     0
  9
$SPLINETYPE
 70
     6
  9
$SPLINESEGS
 70
     8
  9
$ATTDIA
 70
     0
  9
$ATTREQ
 70
     1
  9
$HANDLING
 70
  4097
  9
$HANDSEED
  5
403
  9
$SURFTAB1
 70
     6
  9
$SURFTAB2
 70
     6
  9
$SURFTYPE
 70
     6
  9
$SURFU
 70
     6
  9
$SURFV
 70
     6
  9
$UCSNAME
  2

  9
$UCSORG
 10
0.0
 20
0.0
 30
0.0
  9
$UCSXDIR
 10
1.0
 20
0.0
 30
0.0
  9
$UCSYDIR
 10
0.0
 20
1.0
 30
0.0
  9
$PUCSNAME
  2

  9
$PUCSORG
 10
0.0
 20
0.0
 30
0.0
  9
$PUCSXDIR
 10
1.0
 20
0.0
 30
0.0
  9
$PUCSYDIR
 10
0.0
 20
1.0
 30
0.0
  9
$USERI1
 70
     0
  9
$USERI2
 70
     0
  9
$USERI3
 70
     0
  9
$USERI4
 70
     0
  9
$USERI5
 70
     0
  9
$USERR1
 40
0.0
  9
$USERR2
 40
0.0
  9
$USERR3
 40
0.0
  9
$USERR4
 40
0.0
  9
$USERR5
 40
0.0
  9
$WORLDVIEW
 70
     1
  9
$SHADEDGE
 70
     3
  9
$SHADEDIF
 70
    70
  9
$TILEMODE
 70
     1
  9
$MAXACTVP
 70
    48
  9
$PLIMCHECK
 70
     0
  9
$PEXTMIN
 10
1.0000000000000000E+020
 20
1.0000000000000000E+020
 30
1.0000000000000000E+020
  9
$PEXTMAX
 10
-1.0000000000000000E+020
 20
-1.0000000000000000E+020
 30
-1.0000000000000000E+020
  9
$PLIMMIN
 10
0.0
 20
0.0
  9
$PLIMMAX
 10
12.0
 20
9.0
  9
$UNITMODE
 70
     0
  9
$VISRETAIN
 70
     1
  9
$PLINEGEN
 70
     0
  9
$PSLTSCALE
 70
     0
  0
ENDSEC
  0
SECTION
  2
TABLES
  0
TABLE
  2
VPORT
 70
     3
  0
VPORT
  2
*ACTIVE
 70
     0
 10
0.0
 20
0.0
 11
1.0
 21
1.0
 12
97.510160209116293
 22
-7.5785954622322711
 13
0.0
 23
0.0
 14
0.5
 24
0.5
 15
10.0
 25
10.0
 16
0.0
 26
0.0
 36
1.0
 17
0.0
 27
0.0
 37
0.0
 40
127.7086599103495
 41
2.126099706744867
 42
50.0
 43
0.0
 44
0.0
 50
0.0
 51
0.0
 71
     0
 72
   100
 73
     1
 74
     0
 75
     0
 76
     0
 77
     0
 78
     0
  0
ENDTAB
  0
TABLE
  2
LTYPE
 70
     2
  0
LTYPE
  2
CONTINUOUS
 70
     0
  3
Solid line
 72
    65
 73
     0
 40
0.0
  0
LTYPE
  2
MITTKLEIN
 70
     0
  3
__ . __ . ___ 
 72
    65
 73
     4
 40
0.45
 49
0.25
 49
-0.1
 49
0.0
 49
-0.1
  0
ENDTAB
  0
TABLE
  2
LAYER
 70
     2
  0
LAYER
  2
0
 70
     0
 62
     7
  6
CONTINUOUS
  0
LAYER
  2
MITTELLI
 70
     0
 62
     1
  6
MITTKLEIN
  0
ENDTAB
  0
TABLE
  2
STYLE
 70
     4
  0
STYLE
  2
TXT
 70
     0
 40
0.0
 41
1.0
 50
0.0
 71
     0
 42
2.5
  3
8txt
  4

  0
STYLE
  2
TEXT50
 70
     0
 40
5.0
 41
1.0
 50
0.0
 71
     0
 42
5.0
  3
8simplex
  4

  0
STYLE
  2
SIMPLEX
 70
     0
 40
0.0
 41
0.8
 50
0.0
 71
     0
 42
8.0
  3
simplex
  4

  0
STYLE
  2
STANDARD
 70
     0
 40
0.0
 41
1.0
 50
0.0
 71
     0
 42
0.2
  3
txt
  4

  0
ENDTAB
  0
TABLE
  2
VIEW
 70
     0
  0
ENDTAB
  0
TABLE
  2
UCS
 70
     0
  0
ENDTAB
  0
TABLE
  2
APPID
 70
     1
  0
APPID
  2
ACAD
 70
     0
  0
ENDTAB
  0
TABLE
  2
DIMSTYLE
 70
     1
  0
DIMSTYLE
  2
STANDARD
 70
     0
  3

  4

  5

  6

  7

 40
1.0
 41
0.18
 42
0.0625
 43
0.38
 44
0.18
 45
0.0
 46
0.0
 47
0.0
 48
0.0
140
0.18
141
0.09
142
0.0
143
25.399999999999999
144
1.0
145
0.0
146
1.0
147
0.09
 71
     0
 72
     0
 73
     1
 74
     1
 75
     0
 76
     0
 77
     0
 78
     0
170
     0
171
     2
172
     0
173
     0
174
     0
175
     0
176
     0
177
     0
178
     0
  0
ENDTAB
  0
ENDSEC
  0
SECTION
  2
BLOCKS
  0
BLOCK
  8
0
  2
$MODEL_SPACE
 70
     0
 10
0.0
 20
0.0
 30
0.0
  3
$MODEL_SPACE
  1

  0
ENDBLK
  5
87
  8
0
  0
BLOCK
 67
     1
  8
0
  2
$PAPER_SPACE
 70
     0
 10
0.0
 20
0.0
 30
0.0
  3
$PAPER_SPACE
  1

  0
ENDBLK
  5
8D
 67
     1
  8
0
  0
ENDSEC
  0
SECTION
  2
ENTITIES
  0
LINE
  5
3
  8
MITTELLI
 10
232.15599997881949
 20
-0.0000000000000413
 30
0.0
 11
-37.12595843978545
 21
-0.0000000000000008
 31
0.0
  0
LINE
  5
A
  8
0
 10
224.9999999999998
 20
42.999999999999993
 30
0.0
 11
0.0
 21
42.999999999999893
 31
0.0
  0
LINE
  5
D
  8
0
 10
0.0
 20
42.999999999999893
 30
0.0
 11
-0.0000000000001137
 21
-43.0
 31
0.0
  0
LINE
  5
E
  8
0
 10
-1.500000000000113
 20
36.5
 30
0.0
 11
-1.500000000000113
 21
-36.5
 31
0.0
  0
LINE
  5
F
  8
0
 10
-1.500000000000113
 20
6.0
 30
0.0
 11
-30.50000000000011
 21
6.0
 31
0.0
  0
LINE
  5
10
  8
0
 10
-1.500000000000113
 20
-6.0
 30
0.0
 11
-30.50000000000011
 21
-6.0
 31
0.0
  0
LINE
  5
11
  8
0
 10
-30.50000000000011
 20
6.0
 30
0.0
 11
-30.50000000000011
 21
-6.0
 31
0.0
  0
LINE
  5
12
  8
0
 10
-31.50000000000011
 20
5.0
 30
0.0
 11
-31.50000000000011
 21
-5.0
 31
0.0
  0
LINE
  5
13
  8
0
 10
-30.50000000000011
 20
-6.0
 30
0.0
 11
-31.50000000000011
 21
-5.0
 31
0.0
  0
LINE
  5
14
  8
0
 10
-30.50000000000011
 20
6.0
 30
0.0
 11
-31.50000000000011
 21
5.0
 31
0.0
  0
LINE
  5
15
  8
0
 10
196.81765271085359
 20
-43.000000000000199
 30
0.0
 11
-0.0000000000001137
 21
-43.0
 31
0.0
  0
LINE
  5
16
  8
0
 10
-1.500000000000113
 20
-36.5
 30
0.0
 11
-0.0000000000001137
 21
-36.5
 31
0.0
  0
LINE
  5
17
  8
0
 10
-1.500000000000113
 20
36.5
 30
0.0
 11
-0.0000000000001137
 21
36.5
 31
0.0
  0
LINE
  5
18
  8
0
 10
7.0
 20
42.999999999999879
 30
0.0
 11
6.9999999999998863
 21
-43.0
 31
0.0
  0
LINE
  5
19
  8
0
 10
124.9999999999998
 20
42.999999999999872
 30
0.0
 11
124.9999999999998
 21
-43.000000000000057
 31
0.0
  0
LINE
  5
1A
  8
0
 10
127.9999999999998
 20
42.999999999999829
 30
0.0
 11
127.9999999999998
 21
-43.000000000000092
 31
0.0
  0
TEXT
  5
1B
  8
0
 10
14.1416395859797
 20
-38.719024203175373
 30
0.0
 40
3.2000000000000002
  1
SM 88.3.18 M BH200
  7
SIMPLEX
  0
LINE
  5
49
  8
0
 10
221.9999999999998
 20
42.999999999999851
 30
0.0
 11
221.9999999999998
 21
-43.000000000000078
 31
0.0
  0
LINE
  5
4A
  8
0
 10
173.9999999999998
 20
42.999999999999851
 30
0.0
 11
173.9999999999998
 21
-43.000000000000078
 31
0.0
  0
LINE
  5
4E
  8
0
 10
224.9999999999998
 20
42.999999999999993
 30
0.0
 11
224.9999999999998
 21
-43.000000000000142
 31
0.0
  0
LINE
  5
7C
  8
0
 10
227.02994614536371
 20
35.62179676872173
 30
0.0
 11
224.9999999999998
 21
35.499999999999879
 31
0.0
  0
LINE
  5
7D
  8
0
 10
227.02994614536371
 20
40.378203231278057
 30
0.0
 11
224.9999999999998
 21
40.499999999999908
 31
0.0
  0
ARC
  5
7E
  8
0
 10
226.9999999999998
 20
39.879100808545182
 30
0.0
 40
0.5
 50
0.0
 51
86.566369637550423
  0
LINE
  5
7F
  8
0
 10
227.4999999999998
 20
36.120899191454612
 30
0.0
 11
227.4999999999998
 21
37.499999999999879
 31
0.0
  0
ARC
  5
80
  8
0
 10
226.9999999999998
 20
36.120899191454612
 30
0.0
 40
0.5
 50
273.43363036244961
 51
0.0
  0
LINE
  5
81
  8
0
 10
227.4999999999998
 20
39.879100808545182
 30
0.0
 11
227.4999999999998
 21
38.499999999999908
 31
0.0
  0
LINE
  5
82
  8
0
 10
226.4999999999998
 20
38.499999999999908
 30
0.0
 11
226.4999999999998
 21
37.499999999999908
 31
0.0
  0
LINE
  5
83
  8
0
 10
227.4999999999998
 20
37.499999999999908
 30
0.0
 11
226.4999999999998
 21
37.499999999999908
 31
0.0
  0
LINE
  5
84
  8
0
 10
227.4999999999998
 20
38.499999999999908
 30
0.0
 11
226.4999999999998
 21
38.499999999999908
 31
0.0
  0
LINE
  5
391
  8
0
 10
224.9999999999998
 20
-43.000000000000142
 30
0.0
 11
222.0
 21
-43.000000000000142
 31
0.0
  0
LINE
  5
392
  8
0
 10
224.9999999999998
 20
-43.000000000000142
 30
0.0
 11
217.75780038807369
 21
-43.000000000000142
 31
0.0
  0
LINE
  5
393
  8
0
 10
207.2877265494638
 20
-43.948394907271897
 30
0.0
 11
207.2877265494638
 21
-47.658817774853091
 31
0.0
  0
LINE
  5
394
  8
0
 10
213.52229479774479
 20
-44.852432442832473
 30
0.0
 11
213.52229479774479
 21
-48.562855310413617
 31
0.0
  0
LINE
  5
395
  8
0
 10
216.49970912454151
 20
-50.697608303407321
 30
0.0
 11
216.49970912453929
 21
-46.987185435828962
 31
0.0
  0
LINE
  5
396
  8
0
 10
198.0757439743885
 20
-50.697608303408849
 30
0.0
 11
198.0757439743883
 21
-46.987185435828962
 31
0.0
  0
LINE
  5
397
  8
0
 10
201.0531583011828
 20
-44.852432442832473
 30
0.0
 11
201.0531583011828
 21
-48.562855310413617
 31
0.0
  0
ARC
  5
398
  8
0
 10
207.2877265494638
 20
-43.225102381545263
 30
0.0
 40
8.6696087345522432
 50
245.3219483027552
 51
294.6780516972446
  0
ARC
  5
399
  8
0
 10
207.2877265494638
 20
-58.147022374327342
 30
0.0
 40
8.5330334904247067
 50
65.122103603562763
 51
114.87789639643719
  0
LINE
  5
39A
  8
0
 10
207.28772654946169
 20
-53.736398831964323
 30
0.0
 11
201.05315830118059
 21
-52.832361296403803
 31
0.0
  0
LINE
  5
39B
  8
0
 10
207.28772654946169
 20
-47.658817774853389
 30
0.0
 11
201.05315830118059
 21
-48.562855310413958
 31
0.0
  0
LINE
  5
39C
  8
0
 10
211.55057137738291
 20
-58.169502786031408
 30
0.0
 11
202.96591820062179
 21
-58.169502786031408
 31
0.0
  0
ARC
  5
39D
  8
0
 10
207.2582447890023
 20
-47.076819266136241
 30
0.0
 40
11.092683519895131
 50
247.2350767444407
 51
292.76492325555921
  0
LINE
  5
39E
  8
0
 10
215.85429636775351
 20
-55.641252321692868
 30
0.0
 11
198.6621932102513
 21
-55.641252321692868
 31
0.0
  0
LINE
  5
39F
  8
0
 10
200.36620032383681
 20
-55.641252321692868
 30
0.0
 11
200.36620032383681
 21
-53.113001857354298
 31
0.0
  0
ARC
  5
3A0
  8
0
 10
200.8140557054368
 20
-55.058114195639149
 30
0.0
 40
3.1113885903926328
 50
226.24243683463359
 51
313.75756316536399
  0
LINE
  5
3A1
  8
0
 10
202.96591820062179
 20
-58.169502786031408
 30
0.0
 11
200.81405570543669
 21
-58.169502786031408
 31
0.0
  0
LINE
  5
3A2
  8
0
 10
198.6621932102513
 20
-57.305385154432862
 30
0.0
 11
198.6621932102513
 21
-55.641252321692868
 31
0.0
  0
LINE
  5
3A3
  8
0
 10
202.98855662443381
 20
-53.113001857354298
 30
0.0
 11
198.6621932102513
 21
-53.113001857354298
 31
0.0
  0
LINE
  5
3A4
  8
0
 10
201.05315830118059
 20
-48.562855310413958
 30
0.0
 11
198.0757439743862
 21
-50.697608303410391
 31
0.0
  0
LINE
  5
3A5
  8
0
 10
201.0531583011803
 20
-52.832361296406873
 30
0.0
 11
198.0757439743862
 21
-50.697608303410391
 31
0.0
  0
LINE
  5
3A6
  8
0
 10
198.6621932102513
 20
-53.113001857354298
 30
0.0
 11
198.6621932102513
 21
-51.118081950704983
 31
0.0
  0
ARC
  5
3A7
  8
0
 10
203.9243157374861
 20
-50.764735127133306
 30
0.0
 40
0.4243268062755158
 50
122.23224679872889
 51
232.8392969757243
  0
LINE
  5
3A8
  8
0
 10
213.52229479774709
 20
-52.832361296403803
 30
0.0
 11
216.49970912454151
 21
-50.697608303407321
 31
0.0
  0
LINE
  5
3A9
  8
0
 10
213.52229479774709
 20
-48.562855310413958
 30
0.0
 11
216.49970912454151
 21
-50.697608303410391
 31
0.0
  0
LINE
  5
3AA
  8
0
 10
215.85429636775351
 20
-53.113001857354298
 30
0.0
 11
211.5868964744935
 21
-53.113001857354298
 31
0.0
  0
ARC
  5
3AB
  8
0
 10
213.70243387256781
 20
-55.058114195638332
 30
0.0
 40
3.111388590393207
 50
226.24243683464491
 51
313.75756316535711
  0
LINE
  5
3AC
  8
0
 10
214.150289254168
 20
-55.641252321692868
 30
0.0
 11
214.150289254168
 21
-53.113001857354298
 31
0.0
  0
LINE
  5
3AD
  8
0
 10
211.55057137738291
 20
-55.641252321692868
 30
0.0
 11
211.55057137738291
 21
-57.305385154433189
 31
0.0
  0
LINE
  5
3AE
  8
0
 10
213.70243387256781
 20
-58.169502786031408
 30
0.0
 11
211.55057137738291
 21
-58.169502786031408
 31
0.0
  0
LINE
  5
3AF
  8
0
 10
207.2877265494659
 20
-53.736398831964323
 30
0.0
 11
213.52229479774709
 21
-52.832361296403803
 31
0.0
  0
LINE
  5
3B0
  8
0
 10
207.2877265494659
 20
-47.658817774853389
 30
0.0
 11
213.52229479774709
 21
-48.562855310413958
 31
0.0
  0
ARC
  5
3B1
  8
0
 10
210.6511373614415
 20
-50.764735127133306
 30
0.0
 40
0.4243268062755158
 50
307.16070302427562
 51
57.767753201270999
  0
LINE
  5
3B2
  8
0
 10
215.85429636775351
 20
-57.305385154433431
 30
0.0
 11
215.85429636775351
 21
-55.641252321692868
 31
0.0
  0
LINE
  5
3B3
  8
0
 10
215.85429636775351
 20
-51.160357744045051
 30
0.0
 11
215.85429636775351
 21
-53.113001857354298
 31
0.0
  0
ARC
  5
3B4
  8
0
 10
207.396979972552
 20
-57.160859343329093
 30
0.0
 40
14.93141625830204
 50
56.894423584626963
 51
123.1055764153712
  0
ARC
  5
3B5
  8
0
 10
207.28772654946391
 20
-57.192137778978449
 30
0.0
 40
17.005580066645241
 50
54.200970993750452
 51
125.7990290062495
  0
LINE
  5
3B6
  8
0
 10
207.2877265494638
 20
-43.948394907271897
 30
0.0
 11
201.0531583011828
 21
-44.852432442832473
 31
0.0
  0
ARC
  5
3B7
  8
0
 10
207.2877265494636
 20
-40.650378869082097
 30
0.0
 40
12.60815275542957
 50
33.857998802880211
 51
146.14200119711711
  0
LINE
  5
3B8
  8
0
 10
196.81765271085379
 20
-44.841823036288723
 30
0.0
 11
196.81765271085379
 21
-33.625916632134327
 31
0.0
  0
LINE
  5
3B9
  8
0
 10
196.81765271085379
 20
-44.841823036288808
 30
0.0
 11
196.81765271085379
 21
-33.62591663213442
 31
0.0
  0
ARC
  5
3BA
  8
0
 10
199.19691993774421
 20
-44.888132888009672
 30
0.0
 40
2.3797178696897441
 50
141.27305377249331
 51
241.89179587316031
  0
LINE
  5
3BB
  8
0
 10
199.2416869162563
 20
-46.151225132146401
 30
0.0
 11
199.2416869162563
 21
-44.653326147505823
 31
0.0
  0
LINE
  5
3BC
  8
0
 10
201.0531583011828
 20
-44.852432442832473
 30
0.0
 11
198.0757439743883
 21
-46.987185435828962
 31
0.0
  0
LINE
  5
3BD
  8
0
 10
217.75780038807369
 20
-33.625916632134718
 30
0.0
 11
217.75780038807369
 21
-44.653326147505801
 31
0.0
  0
LINE
  5
3BE
  8
0
 10
217.7578003880738
 20
-33.62591663213481
 30
0.0
 11
217.7578003880738
 21
-44.653326147505872
 31
0.0
  0
LINE
  5
3BF
  8
0
 10
213.52229479774479
 20
-44.852432442832473
 30
0.0
 11
216.49970912453929
 21
-46.987185435828962
 31
0.0
  0
LINE
  5
3C0
  8
0
 10
207.2877265494638
 20
-43.948394907271897
 30
0.0
 11
213.52229479774479
 21
-44.852432442832473
 31
0.0
  0
LINE
  5
3C1
  8
0
 10
215.55227302884811
 20
-46.151225132146401
 30
0.0
 11
215.55227302884811
 21
-44.653326147505823
 31
0.0
  0
ARC
  5
3C2
  8
0
 10
215.37853295310109
 20
-44.888132845362797
 30
0.0
 40
2.3797180053420761
 50
298.10820806217282
 51
38.726942292199382
  0
LINE
  5
3C3
  8
0
 10
227.5
 20
-37.500000000000092
 30
0.0
 11
226.5
 21
-37.500000000000092
 31
0.0
  0
LINE
  5
3C4
  8
0
 10
227.5
 20
-38.500000000000092
 30
0.0
 11
226.5
 21
-38.500000000000092
 31
0.0
  0
LINE
  5
3C5
  8
0
 10
226.5
 20
-38.500000000000092
 30
0.0
 11
226.5
 21
-37.500000000000092
 31
0.0
  0
LINE
  5
3C6
  8
0
 10
227.5
 20
-36.120899191454797
 30
0.0
 11
227.5
 21
-37.500000000000021
 31
0.0
  0
ARC
  5
3C7
  8
0
 10
226.9999999999998
 20
-36.120899191454797
 30
0.0
 40
0.5
 50
0.0
 51
86.566369637550423
  0
LINE
  5
3C8
  8
0
 10
227.5
 20
-39.87910080854536
 30
0.0
 11
227.5
 21
-38.500000000000092
 31
0.0
  0
LINE
  5
3C9
  8
0
 10
227.02994614536391
 20
-35.621796768721921
 30
0.0
 11
224.9999999999998
 21
-35.500000000000043
 31
0.0
  0
LINE
  5
3CA
  8
0
 10
227.02994614536391
 20
-40.378203231278242
 30
0.0
 11
224.9999999999998
 21
-40.500000000000078
 31
0.0
  0
ARC
  5
3CB
  8
0
 10
226.9999999999998
 20
-39.87910080854536
 30
0.0
 40
0.5
 50
273.43363036244961
 51
0.0
  0
ENDSEC
  0
EOF
