  0
SECTION
  2
HEADER
  9
$ACADVER
  1
AC1009
  9
$INSBASE
 10
0.0
 20
0.0
 30
0.0
  9
$EXTMIN
 10
-36.622010178613088
 20
-53.746796488309087
 30
-0.0000000000022887
  9
$EXTMAX
 10
153.5121090398716
 20
43.01077741990548
 30
0.0000000000000001
  9
$LIMMIN
 10
0.0
 20
0.0
  9
$LIMMAX
 10
410.0
 20
287.0
  9
$ORTHOMODE
 70
     1
  9
$REGENMODE
 70
     1
  9
$FILLMODE
 70
     1
  9
$QTEXTMODE
 70
     0
  9
$MIRRTEXT
 70
     1
  9
$DRAGMODE
 70
     2
  9
$LTSCALE
 40
25.0
  9
$OSMODE
 70
    39
  9
$ATTMODE
 70
     1
  9
$TEXTSIZE
 40
5.0
  9
$TRACEWID
 40
0.6
  9
$TEXTSTYLE
  7
TEXT50
  9
$CLAYER
  8
0
  9
$CELTYPE
  6
BYLAYER
  9
$CECOLOR
 62
   256
  9
$DIMSCALE
 40
1.0
  9
$DIMASZ
 40
3.5
  9
$DIMEXO
 40
0.1
  9
$DIMDLI
 40
7.0
  9
$DIMRND
 40
0.0
  9
$DIMDLE
 40
0.0
  9
$DIMEXE
 40
1.8
  9
$DIMTP
 40
0.0
  9
$DIMTM
 40
0.0
  9
$DIMTXT
 40
3.5
  9
$DIMCEN
 40
1.5
  9
$DIMTSZ
 40
0.0
  9
$DIMTOL
 70
     0
  9
$DIMLIM
 70
     0
  9
$DIMTIH
 70
     0
  9
$DIMTOH
 70
     0
  9
$DIMSE1
 70
     0
  9
$DIMSE2
 70
     0
  9
$DIMTAD
 70
     1
  9
$DIMZIN
 70
     0
  9
$DIMBLK
  1

  9
$DIMASO
 70
     0
  9
$DIMSHO
 70
     1
  9
$DIMPOST
  1

  9
$DIMAPOST
  1

  9
$DIMALT
 70
     0
  9
$DIMALTD
 70
     2
  9
$DIMALTF
 40
25.399999999999999
  9
$DIMLFAC
 40
1.0
  9
$DIMTOFL
 70
     0
  9
$DIMTVP
 40
0.0
  9
$DIMTIX
 70
     0
  9
$DIMSOXD
 70
     0
  9
$DIMSAH
 70
     0
  9
$DIMBLK1
  1

  9
$DIMBLK2
  1

  9
$DIMSTYLE
  2
STANDARD
  9
$DIMCLRD
 70
     0
  9
$DIMCLRE
 70
     0
  9
$DIMCLRT
 70
     0
  9
$DIMTFAC
 40
1.0
  9
$DIMGAP
 40
0.09
  9
$LUNITS
 70
     2
  9
$LUPREC
 70
     1
  9
$SKETCHINC
 40
0.1
  9
$FILLETRAD
 40
0.0
  9
$AUNITS
 70
     0
  9
$AUPREC
 70
     0
  9
$MENU
  1
acad
  9
$ELEVATION
 40
0.0
  9
$PELEVATION
 40
0.0
  9
$THICKNESS
 40
0.0
  9
$LIMCHECK
 70
     0
  9
$BLIPMODE
 70
     0
  9
$CHAMFERA
 40
1.0
  9
$CHAMFERB
 40
1.0
  9
$SKPOLY
 70
     0
  9
$TDCREATE
 40
2449016.4831520831
  9
$TDUPDATE
 40
2452677.7628501388
  9
$TDINDWG
 40
0.1458760764
  9
$TDUSRTIMER
 40
0.1458760764
  9
$USRTIMER
 70
     1
  9
$ANGBASE
 50
0.0
  9
$ANGDIR
 70
     0
  9
$PDMODE
 70
     0
  9
$PDSIZE
 40
0.0
  9
$PLINEWID
 40
0.0
  9
$COORDS
 70
     0
  9
$SPLFRAME
 70
     0
  9
$SPLINETYPE
 70
     6
  9
$SPLINESEGS
 70
     8
  9
$ATTDIA
 70
     0
  9
$ATTREQ
 70
     1
  9
$HANDLING
 70
  4097
  9
$HANDSEED
  5
33F
  9
$SURFTAB1
 70
     6
  9
$SURFTAB2
 70
     6
  9
$SURFTYPE
 70
     6
  9
$SURFU
 70
     6
  9
$SURFV
 70
     6
  9
$UCSNAME
  2

  9
$UCSORG
 10
0.0
 20
0.0
 30
0.0
  9
$UCSXDIR
 10
1.0
 20
0.0
 30
0.0
  9
$UCSYDIR
 10
0.0
 20
1.0
 30
0.0
  9
$PUCSNAME
  2

  9
$PUCSORG
 10
0.0
 20
0.0
 30
0.0
  9
$PUCSXDIR
 10
1.0
 20
0.0
 30
0.0
  9
$PUCSYDIR
 10
0.0
 20
1.0
 30
0.0
  9
$USERI1
 70
     0
  9
$USERI2
 70
     0
  9
$USERI3
 70
     0
  9
$USERI4
 70
     0
  9
$USERI5
 70
     0
  9
$USERR1
 40
0.0
  9
$USERR2
 40
0.0
  9
$USERR3
 40
0.0
  9
$USERR4
 40
0.0
  9
$USERR5
 40
0.0
  9
$WORLDVIEW
 70
     1
  9
$SHADEDGE
 70
     3
  9
$SHADEDIF
 70
    70
  9
$TILEMODE
 70
     1
  9
$MAXACTVP
 70
    48
  9
$PLIMCHECK
 70
     0
  9
$PEXTMIN
 10
1.0000000000000000E+020
 20
1.0000000000000000E+020
 30
1.0000000000000000E+020
  9
$PEXTMAX
 10
-1.0000000000000000E+020
 20
-1.0000000000000000E+020
 30
-1.0000000000000000E+020
  9
$PLIMMIN
 10
0.0
 20
0.0
  9
$PLIMMAX
 10
12.0
 20
9.0
  9
$UNITMODE
 70
     0
  9
$VISRETAIN
 70
     1
  9
$PLINEGEN
 70
     0
  9
$PSLTSCALE
 70
     0
  0
ENDSEC
  0
SECTION
  2
TABLES
  0
TABLE
  2
VPORT
 70
     4
  0
VPORT
  2
*ACTIVE
 70
     0
 10
0.0
 20
0.0
 11
1.0
 21
1.0
 12
58.445049430629282
 22
-5.3680095342018026
 13
0.0
 23
0.0
 14
0.5
 24
0.5
 15
10.0
 25
10.0
 16
0.0
 26
0.0
 36
1.0
 17
0.0
 27
0.0
 37
0.0
 40
98.455075204849905
 41
2.126099706744867
 42
50.0
 43
0.0
 44
0.0
 50
0.0
 51
0.0
 71
     0
 72
   100
 73
     1
 74
     0
 75
     0
 76
     0
 77
     0
 78
     0
  0
ENDTAB
  0
TABLE
  2
LTYPE
 70
     2
  0
LTYPE
  2
CONTINUOUS
 70
     0
  3
Solid line
 72
    65
 73
     0
 40
0.0
  0
LTYPE
  2
MITTKLEIN
 70
     0
  3
__ . __ . ___ 
 72
    65
 73
     4
 40
0.45
 49
0.25
 49
-0.1
 49
0.0
 49
-0.1
  0
ENDTAB
  0
TABLE
  2
LAYER
 70
     2
  0
LAYER
  2
0
 70
     0
 62
     7
  6
CONTINUOUS
  0
LAYER
  2
MITTELLI
 70
     0
 62
     1
  6
MITTKLEIN
  0
ENDTAB
  0
TABLE
  2
STYLE
 70
     3
  0
STYLE
  2
TXT
 70
     0
 40
0.0
 41
1.0
 50
0.0
 71
     0
 42
2.5
  3
8txt
  4

  0
STYLE
  2
TEXT50
 70
     0
 40
5.0
 41
1.0
 50
0.0
 71
     0
 42
5.0
  3
8simplex
  4

  0
STYLE
  2
SIMPLEX
 70
     0
 40
0.0
 41
0.8
 50
0.0
 71
     0
 42
8.0
  3
simplex
  4

  0
ENDTAB
  0
TABLE
  2
VIEW
 70
     0
  0
ENDTAB
  0
TABLE
  2
UCS
 70
     0
  0
ENDTAB
  0
TABLE
  2
APPID
 70
     1
  0
APPID
  2
ACAD
 70
     0
  0
ENDTAB
  0
TABLE
  2
DIMSTYLE
 70
     1
  0
DIMSTYLE
  2
STANDARD
 70
     0
  3

  4

  5

  6

  7

 40
1.0
 41
0.18
 42
0.0625
 43
0.38
 44
0.18
 45
0.0
 46
0.0
 47
0.0
 48
0.0
140
0.18
141
0.09
142
0.0
143
25.399999999999999
144
1.0
145
0.0
146
1.0
147
0.09
 71
     0
 72
     0
 73
     1
 74
     1
 75
     0
 76
     0
 77
     0
 78
     0
170
     0
171
     2
172
     0
173
     0
174
     0
175
     0
176
     0
177
     0
178
     0
  0
ENDTAB
  0
ENDSEC
  0
SECTION
  2
BLOCKS
  0
BLOCK
  8
0
  2
$MODEL_SPACE
 70
     0
 10
0.0
 20
0.0
 30
0.0
  3
$MODEL_SPACE
  1

  0
ENDBLK
  5
75
  8
0
  0
BLOCK
 67
     1
  8
0
  2
$PAPER_SPACE
 70
     0
 10
0.0
 20
0.0
 30
0.0
  3
$PAPER_SPACE
  1

  0
ENDBLK
  5
7B
 67
     1
  8
0
  0
ENDSEC
  0
SECTION
  2
ENTITIES
  0
LINE
  5
3
  8
MITTELLI
 10
153.51157160046199
 20
-0.0000000000000496
 30
0.0
 11
-36.5917314825939
 21
-0.0000000000000014
 31
0.0
  0
LINE
  5
A
  8
0
 10
144.0
 20
42.999999999999957
 30
0.0
 11
0.0
 21
42.999999999999893
 31
0.0
  0
LINE
  5
D
  8
0
 10
0.0
 20
42.999999999999893
 30
0.0
 11
-0.0000000000001137
 21
-43.0
 31
0.0
  0
LINE
  5
E
  8
0
 10
-1.500000000000113
 20
36.5
 30
0.0
 11
-1.500000000000113
 21
-36.5
 31
0.0
  0
LINE
  5
F
  8
0
 10
-1.500000000000113
 20
6.0
 30
0.0
 11
-30.50000000000011
 21
6.0
 31
0.0
  0
LINE
  5
10
  8
0
 10
-1.500000000000113
 20
-6.0
 30
0.0
 11
-30.50000000000011
 21
-6.0
 31
0.0
  0
LINE
  5
11
  8
0
 10
-30.50000000000011
 20
6.0
 30
0.0
 11
-30.50000000000011
 21
-6.0
 31
0.0
  0
LINE
  5
12
  8
0
 10
-31.50000000000011
 20
5.0
 30
0.0
 11
-31.50000000000011
 21
-5.0
 31
0.0
  0
LINE
  5
13
  8
0
 10
-30.50000000000011
 20
-6.0
 30
0.0
 11
-31.50000000000011
 21
-5.0
 31
0.0
  0
LINE
  5
14
  8
0
 10
-30.50000000000011
 20
6.0
 30
0.0
 11
-31.50000000000011
 21
5.0
 31
0.0
  0
LINE
  5
15
  8
0
 10
115.81765271085369
 20
-43.000000000000128
 30
0.0
 11
-0.0000000000001137
 21
-43.0
 31
0.0
  0
TEXT
  5
16
  8
0
 10
11.543676545095421
 20
-38.719024203175302
 30
0.0
 40
3.2000000000000002
  1
SM 88.2.18 M H200
  7
SIMPLEX
  0
LINE
  5
18
  8
0
 10
-1.500000000000113
 20
-36.5
 30
0.0
 11
-0.0000000000001137
 21
-36.5
 31
0.0
  0
LINE
  5
19
  8
0
 10
-1.500000000000113
 20
36.5
 30
0.0
 11
-0.0000000000001137
 21
36.5
 31
0.0
  0
LINE
  5
1A
  8
0
 10
7.0
 20
42.999999999999879
 30
0.0
 11
6.9999999999998863
 21
-43.0
 31
0.0
  0
LINE
  5
1B
  8
0
 10
92.999999999999886
 20
42.999999999999872
 30
0.0
 11
92.999999999999886
 21
-43.000000000000057
 31
0.0
  0
LINE
  5
1C
  8
0
 10
144.0
 20
42.999999999999957
 30
0.0
 11
144.0
 21
-43.000000000000128
 31
0.0
  0
LINE
  5
1D
  8
0
 10
141.0
 20
42.999999999999872
 30
0.0
 11
141.0
 21
-43.000000000000057
 31
0.0
  0
LINE
  5
6A
  8
0
 10
145.5
 20
38.499999999999922
 30
0.0
 11
145.5
 21
37.499999999999922
 31
0.0
  0
LINE
  5
6B
  8
0
 10
146.5
 20
37.499999999999922
 30
0.0
 11
145.5
 21
37.499999999999922
 31
0.0
  0
ARC
  5
6C
  8
0
 10
146.0
 20
36.120899191454619
 30
0.0
 40
0.5
 50
273.43363036244961
 51
0.0
  0
LINE
  5
6D
  8
0
 10
146.02994614536391
 20
35.621796768721751
 30
0.0
 11
144.0
 21
35.499999999999901
 31
0.0
  0
LINE
  5
6E
  8
0
 10
146.5
 20
36.120899191454619
 30
0.0
 11
146.5
 21
37.499999999999901
 31
0.0
  0
LINE
  5
6F
  8
0
 10
146.5
 20
38.499999999999922
 30
0.0
 11
145.5
 21
38.499999999999922
 31
0.0
  0
ARC
  5
70
  8
0
 10
146.0
 20
39.879100808545203
 30
0.0
 40
0.5
 50
0.0
 51
86.566369637550423
  0
LINE
  5
71
  8
0
 10
146.02994614536391
 20
40.378203231278079
 30
0.0
 11
144.0
 21
40.499999999999922
 31
0.0
  0
LINE
  5
72
  8
0
 10
146.5
 20
39.879100808545203
 30
0.0
 11
146.5
 21
38.499999999999922
 31
0.0
  0
ARC
  5
2DC
  8
0
 10
126.2877265494636
 20
-40.65037886908199
 30
0.0
 40
12.60815275542957
 50
33.857998802880211
 51
146.14200119711711
  0
LINE
  5
2DD
  8
0
 10
126.2877265494637
 20
-43.948394907271869
 30
0.0
 11
120.05315830118271
 21
-44.852432442832438
 31
0.0
  0
LINE
  5
2DE
  8
0
 10
126.2877265494615
 20
-47.658817774853347
 30
0.0
 11
120.0531583011805
 21
-48.56285531041393
 31
0.0
  0
LINE
  5
2DF
  8
0
 10
126.2877265494615
 20
-53.73639883196428
 30
0.0
 11
120.0531583011805
 21
-52.832361296403782
 31
0.0
  0
ARC
  5
2E0
  8
0
 10
126.2877265494638
 20
-57.19213777897842
 30
0.0
 40
17.005580066645241
 50
54.200970993750452
 51
125.7990290062495
  0
ARC
  5
2E1
  8
0
 10
126.3969799725519
 20
-57.160859343329051
 30
0.0
 40
14.93141625830204
 50
56.894423584626963
 51
123.1055764153712
  0
LINE
  5
2E2
  8
0
 10
115.81765271085369
 20
-44.841823036288723
 30
0.0
 11
115.81765271085369
 21
-33.62591663213432
 31
0.0
  0
LINE
  5
2E3
  8
0
 10
120.0531583011805
 20
-48.56285531041393
 30
0.0
 11
117.0757439743861
 21
-50.697608303410348
 31
0.0
  0
LINE
  5
2E4
  8
0
 10
117.0757439743884
 20
-50.697608303408821
 30
0.0
 11
117.0757439743882
 21
-46.987185435828927
 31
0.0
  0
LINE
  5
2E5
  8
0
 10
120.0531583011801
 20
-52.832361296406837
 30
0.0
 11
117.0757439743861
 21
-50.697608303410348
 31
0.0
  0
ARC
  5
2E6
  8
0
 10
118.1969199377441
 20
-44.888132888009643
 30
0.0
 40
2.3797178696897441
 50
141.27305377249331
 51
241.89179587316031
  0
LINE
  5
2E7
  8
0
 10
120.05315830118271
 20
-44.852432442832438
 30
0.0
 11
120.05315830118271
 21
-48.562855310413589
 31
0.0
  0
LINE
  5
2E8
  8
0
 10
118.2416869162561
 20
-46.151225132146372
 30
0.0
 11
118.2416869162561
 21
-44.65332614750578
 31
0.0
  0
LINE
  5
2E9
  8
0
 10
120.05315830118271
 20
-44.852432442832438
 30
0.0
 11
117.0757439743882
 21
-46.987185435828927
 31
0.0
  0
LINE
  5
2EA
  8
0
 10
136.75780038807369
 20
-33.625916632134732
 30
0.0
 11
136.75780038807369
 21
-44.65332614750578
 31
0.0
  0
LINE
  5
2EB
  8
0
 10
126.2877265494637
 20
-43.948394907271869
 30
0.0
 11
132.52229479774471
 21
-44.852432442832438
 31
0.0
  0
LINE
  5
2EC
  8
0
 10
126.2877265494658
 20
-47.658817774853347
 30
0.0
 11
132.52229479774701
 21
-48.56285531041393
 31
0.0
  0
ARC
  5
2ED
  8
0
 10
129.65113736144141
 20
-50.764735127133278
 30
0.0
 40
0.4243268062755158
 50
307.16070302427562
 51
57.767753201270999
  0
LINE
  5
2EE
  8
0
 10
126.2877265494658
 20
-53.73639883196428
 30
0.0
 11
132.52229479774701
 21
-52.832361296403782
 31
0.0
  0
ARC
  5
2EF
  8
0
 10
126.2877265494637
 20
-58.147022374327307
 30
0.0
 40
8.5330334904247067
 50
65.122103603562763
 51
114.87789639643719
  0
ARC
  5
2F0
  8
0
 10
126.2877265494637
 20
-43.225102381545227
 30
0.0
 40
8.6696087345522432
 50
245.3219483027552
 51
294.6780516972446
  0
ARC
  5
2F1
  8
0
 10
122.924315737486
 20
-50.764735127133278
 30
0.0
 40
0.4243268062755158
 50
122.23224679872889
 51
232.8392969757243
  0
LINE
  5
2F2
  8
0
 10
126.2877265494637
 20
-43.948394907271869
 30
0.0
 11
126.2877265494637
 21
-47.658817774853063
 31
0.0
  0
LINE
  5
2F3
  8
0
 10
135.49970912454131
 20
-50.697608303407293
 30
0.0
 11
135.49970912453909
 21
-46.987185435828927
 31
0.0
  0
LINE
  5
2F4
  8
0
 10
132.52229479774701
 20
-48.56285531041393
 30
0.0
 11
135.49970912454131
 21
-50.697608303410348
 31
0.0
  0
LINE
  5
2F5
  8
0
 10
132.52229479774701
 20
-52.832361296403782
 30
0.0
 11
135.49970912454131
 21
-50.697608303407293
 31
0.0
  0
LINE
  5
2F6
  8
0
 10
132.52229479774471
 20
-44.852432442832438
 30
0.0
 11
135.49970912453909
 21
-46.987185435828927
 31
0.0
  0
LINE
  5
2F7
  8
0
 10
132.52229479774471
 20
-44.852432442832438
 30
0.0
 11
132.52229479774471
 21
-48.562855310413589
 31
0.0
  0
LINE
  5
2F8
  8
0
 10
134.55227302884799
 20
-46.151225132146372
 30
0.0
 11
134.55227302884799
 21
-44.65332614750578
 31
0.0
  0
ARC
  5
2F9
  8
0
 10
134.378532953101
 20
-44.888132845362769
 30
0.0
 40
2.3797180053420761
 50
298.10820806217282
 51
38.726942292199382
  0
LINE
  5
2FA
  8
0
 10
144.0
 20
-43.000000000000128
 30
0.0
 11
136.75780038807369
 21
-43.000000000000128
 31
0.0
  0
LINE
  5
2FB
  8
0
 10
146.5
 20
-36.120899191454768
 30
0.0
 11
146.5
 21
-37.500000000000043
 31
0.0
  0
LINE
  5
2FC
  8
0
 10
144.0
 20
-43.000000000000107
 30
0.0
 11
141.0
 21
-43.000000000000107
 31
0.0
  0
LINE
  5
2FD
  8
0
 10
146.5
 20
-37.500000000000071
 30
0.0
 11
145.5
 21
-37.500000000000071
 31
0.0
  0
LINE
  5
2FE
  8
0
 10
146.5
 20
-38.500000000000071
 30
0.0
 11
145.5
 21
-38.500000000000071
 31
0.0
  0
LINE
  5
2FF
  8
0
 10
146.02994614536391
 20
-40.378203231278221
 30
0.0
 11
144.0
 21
-40.500000000000057
 31
0.0
  0
LINE
  5
300
  8
0
 10
145.5
 20
-38.500000000000071
 30
0.0
 11
145.5
 21
-37.500000000000071
 31
0.0
  0
ARC
  5
301
  8
0
 10
146.0
 20
-39.879100808545338
 30
0.0
 40
0.5
 50
273.43363036244961
 51
0.0
  0
LINE
  5
302
  8
0
 10
146.5
 20
-39.879100808545338
 30
0.0
 11
146.5
 21
-38.500000000000071
 31
0.0
  0
LINE
  5
303
  8
0
 10
146.02994614536391
 20
-35.621796768721893
 30
0.0
 11
144.0
 21
-35.500000000000043
 31
0.0
  0
ARC
  5
304
  8
0
 10
146.0
 20
-36.120899191454768
 30
0.0
 40
0.5
 50
0.0
 51
86.566369637550423
  0
ENDSEC
  0
EOF
