  0
SECTION
  2
HEADER
  9
$ACADVER
  1
AC1009
  9
$INSBASE
 10
0.0
 20
0.0
 30
0.0
  9
$EXTMIN
 10
-35.083335535939341
 20
-53.757194461940799
 30
-0.0000000000022892
  9
$EXTMAX
 10
206.73104190619529
 20
43.003332027816782
 30
0.0000000000000001
  9
$LIMMIN
 10
0.0
 20
0.0
  9
$LIMMAX
 10
410.0
 20
287.0
  9
$ORTHOMODE
 70
     1
  9
$REGENMODE
 70
     1
  9
$FILLMODE
 70
     1
  9
$QTEXTMODE
 70
     0
  9
$MIRRTEXT
 70
     1
  9
$DRAGMODE
 70
     2
  9
$LTSCALE
 40
25.0
  9
$OSMODE
 70
    39
  9
$ATTMODE
 70
     1
  9
$TEXTSIZE
 40
5.0
  9
$TRACEWID
 40
0.6
  9
$TEXTSTYLE
  7
TEXT50
  9
$CLAYER
  8
0
  9
$CELTYPE
  6
BYLAYER
  9
$CECOLOR
 62
   256
  9
$DIMSCALE
 40
1.0
  9
$DIMASZ
 40
3.5
  9
$DIMEXO
 40
0.1
  9
$DIMDLI
 40
7.0
  9
$DIMRND
 40
0.0
  9
$DIMDLE
 40
0.0
  9
$DIMEXE
 40
1.8
  9
$DIMTP
 40
0.0
  9
$DIMTM
 40
0.0
  9
$DIMTXT
 40
3.5
  9
$DIMCEN
 40
1.5
  9
$DIMTSZ
 40
0.0
  9
$DIMTOL
 70
     0
  9
$DIMLIM
 70
     0
  9
$DIMTIH
 70
     0
  9
$DIMTOH
 70
     0
  9
$DIMSE1
 70
     0
  9
$DIMSE2
 70
     0
  9
$DIMTAD
 70
     1
  9
$DIMZIN
 70
     0
  9
$DIMBLK
  1

  9
$DIMASO
 70
     0
  9
$DIMSHO
 70
     1
  9
$DIMPOST
  1

  9
$DIMAPOST
  1

  9
$DIMALT
 70
     0
  9
$DIMALTD
 70
     2
  9
$DIMALTF
 40
25.399999999999999
  9
$DIMLFAC
 40
1.0
  9
$DIMTOFL
 70
     0
  9
$DIMTVP
 40
0.0
  9
$DIMTIX
 70
     0
  9
$DIMSOXD
 70
     0
  9
$DIMSAH
 70
     0
  9
$DIMBLK1
  1

  9
$DIMBLK2
  1

  9
$DIMSTYLE
  2
STANDARD
  9
$DIMCLRD
 70
     0
  9
$DIMCLRE
 70
     0
  9
$DIMCLRT
 70
     0
  9
$DIMTFAC
 40
1.0
  9
$DIMGAP
 40
0.09
  9
$LUNITS
 70
     2
  9
$LUPREC
 70
     1
  9
$SKETCHINC
 40
0.1
  9
$FILLETRAD
 40
0.0
  9
$AUNITS
 70
     0
  9
$AUPREC
 70
     0
  9
$MENU
  1
acad
  9
$ELEVATION
 40
0.0
  9
$PELEVATION
 40
0.0
  9
$THICKNESS
 40
0.0
  9
$LIMCHECK
 70
     0
  9
$BLIPMODE
 70
     0
  9
$CHAMFERA
 40
1.0
  9
$CHAMFERB
 40
1.0
  9
$SKPOLY
 70
     0
  9
$TDCREATE
 40
2449016.4831520831
  9
$TDUPDATE
 40
2452677.7418091199
  9
$TDINDWG
 40
0.1258964236
  9
$TDUSRTIMER
 40
0.1258963079
  9
$USRTIMER
 70
     1
  9
$ANGBASE
 50
0.0
  9
$ANGDIR
 70
     0
  9
$PDMODE
 70
     0
  9
$PDSIZE
 40
0.0
  9
$PLINEWID
 40
0.0
  9
$COORDS
 70
     0
  9
$SPLFRAME
 70
     0
  9
$SPLINETYPE
 70
     6
  9
$SPLINESEGS
 70
     8
  9
$ATTDIA
 70
     0
  9
$ATTREQ
 70
     1
  9
$HANDLING
 70
  4097
  9
$HANDSEED
  5
370
  9
$SURFTAB1
 70
     6
  9
$SURFTAB2
 70
     6
  9
$SURFTYPE
 70
     6
  9
$SURFU
 70
     6
  9
$SURFV
 70
     6
  9
$UCSNAME
  2

  9
$UCSORG
 10
0.0
 20
0.0
 30
0.0
  9
$UCSXDIR
 10
1.0
 20
0.0
 30
0.0
  9
$UCSYDIR
 10
0.0
 20
1.0
 30
0.0
  9
$PUCSNAME
  2

  9
$PUCSORG
 10
0.0
 20
0.0
 30
0.0
  9
$PUCSXDIR
 10
1.0
 20
0.0
 30
0.0
  9
$PUCSYDIR
 10
0.0
 20
1.0
 30
0.0
  9
$USERI1
 70
     0
  9
$USERI2
 70
     0
  9
$USERI3
 70
     0
  9
$USERI4
 70
     0
  9
$USERI5
 70
     0
  9
$USERR1
 40
0.0
  9
$USERR2
 40
0.0
  9
$USERR3
 40
0.0
  9
$USERR4
 40
0.0
  9
$USERR5
 40
0.0
  9
$WORLDVIEW
 70
     1
  9
$SHADEDGE
 70
     3
  9
$SHADEDIF
 70
    70
  9
$TILEMODE
 70
     1
  9
$MAXACTVP
 70
    48
  9
$PLIMCHECK
 70
     0
  9
$PEXTMIN
 10
1.0000000000000000E+020
 20
1.0000000000000000E+020
 30
1.0000000000000000E+020
  9
$PEXTMAX
 10
-1.0000000000000000E+020
 20
-1.0000000000000000E+020
 30
-1.0000000000000000E+020
  9
$PLIMMIN
 10
0.0
 20
0.0
  9
$PLIMMAX
 10
12.0
 20
9.0
  9
$UNITMODE
 70
     0
  9
$VISRETAIN
 70
     1
  9
$PLINEGEN
 70
     0
  9
$PSLTSCALE
 70
     0
  0
ENDSEC
  0
SECTION
  2
TABLES
  0
TABLE
  2
VPORT
 70
     3
  0
VPORT
  2
*ACTIVE
 70
     0
 10
0.0
 20
0.0
 11
1.0
 21
1.0
 12
85.823853185127959
 22
-5.3769312170620083
 13
0.0
 23
0.0
 14
0.5
 24
0.5
 15
10.0
 25
10.0
 16
0.0
 26
0.0
 36
1.0
 17
0.0
 27
0.0
 37
0.0
 40
114.67465405083691
 41
2.126099706744867
 42
50.0
 43
0.0
 44
0.0
 50
0.0
 51
0.0
 71
     0
 72
   100
 73
     1
 74
     0
 75
     0
 76
     0
 77
     0
 78
     0
  0
ENDTAB
  0
TABLE
  2
LTYPE
 70
     2
  0
LTYPE
  2
CONTINUOUS
 70
     0
  3
Solid line
 72
    65
 73
     0
 40
0.0
  0
LTYPE
  2
MITTKLEIN
 70
     0
  3
__ . __ . ___ 
 72
    65
 73
     4
 40
0.45
 49
0.25
 49
-0.1
 49
0.0
 49
-0.1
  0
ENDTAB
  0
TABLE
  2
LAYER
 70
     2
  0
LAYER
  2
0
 70
     0
 62
     7
  6
CONTINUOUS
  0
LAYER
  2
MITTELLI
 70
     0
 62
     1
  6
MITTKLEIN
  0
ENDTAB
  0
TABLE
  2
STYLE
 70
     5
  0
STYLE
  2
STANDARD
 70
     0
 40
0.0
 41
1.0
 50
0.0
 71
     0
 42
2.5
  3
txt
  4

  0
STYLE
  2
TEXT50
 70
     0
 40
5.0
 41
1.0
 50
0.0
 71
     0
 42
5.0
  3
8simplex
  4

  0
STYLE
  2
TXT
 70
     0
 40
0.0
 41
1.0
 50
0.0
 71
     0
 42
2.5
  3
8txt
  4

  0
STYLE
  2
SIMPLEX
 70
     0
 40
0.0
 41
0.8
 50
0.0
 71
     0
 42
8.0
  3
simplex
  4

  0
STYLE
  2

 70
     0
 40
0.0
 41
0.0
 50
0.0
 71
     0
 42
0.0
  3
txt
  4

  0
ENDTAB
  0
TABLE
  2
VIEW
 70
     0
  0
ENDTAB
  0
TABLE
  2
UCS
 70
     0
  0
ENDTAB
  0
TABLE
  2
APPID
 70
     1
  0
APPID
  2
ACAD
 70
     0
  0
ENDTAB
  0
TABLE
  2
DIMSTYLE
 70
     1
  0
DIMSTYLE
  2
STANDARD
 70
     0
  3

  4

  5

  6

  7

 40
1.0
 41
0.18
 42
0.0625
 43
0.38
 44
0.18
 45
0.0
 46
0.0
 47
0.0
 48
0.0
140
0.18
141
0.09
142
0.0
143
25.399999999999999
144
1.0
145
0.0
146
1.0
147
0.09
 71
     0
 72
     0
 73
     1
 74
     1
 75
     0
 76
     0
 77
     0
 78
     0
170
     0
171
     2
172
     0
173
     0
174
     0
175
     0
176
     0
177
     0
178
     0
  0
ENDTAB
  0
ENDSEC
  0
SECTION
  2
BLOCKS
  0
BLOCK
  8
0
  2
$MODEL_SPACE
 70
     0
 10
0.0
 20
0.0
 30
0.0
  3
$MODEL_SPACE
  1

  0
ENDBLK
  5
223
  8
0
  0
BLOCK
 67
     1
  8
0
  2
$PAPER_SPACE
 70
     0
 10
0.0
 20
0.0
 30
0.0
  3
$PAPER_SPACE
  1

  0
ENDBLK
  5
21F
 67
     1
  8
0
  0
ENDSEC
  0
SECTION
  2
ENTITIES
  0
LINE
  5
234
  8
0
 10
197.1999999999999
 20
42.999999999999893
 30
0.0
 11
197.1999999999999
 21
-43.000000000000057
 31
0.0
  0
LINE
  5
235
  8
0
 10
200.1999999999999
 20
43.0
 30
0.0
 11
200.1999999999999
 21
-43.000000000000099
 31
0.0
  0
LINE
  5
236
  8
0
 10
149.19999999999979
 20
42.999999999999893
 30
0.0
 11
149.19999999999979
 21
-43.000000000000057
 31
0.0
  0
LINE
  5
237
  8
0
 10
-1.5
 20
36.5
 30
0.0
 11
-1.5
 21
-36.50000000000005
 31
0.0
  0
LINE
  5
238
  8
0
 10
0.0
 20
42.999999999999893
 30
0.0
 11
0.0
 21
-43.0
 31
0.0
  0
LINE
  5
239
  8
0
 10
5.6999999999998172
 20
42.999999999999893
 30
0.0
 11
5.6999999999998172
 21
-43.000000000000057
 31
0.0
  0
TEXT
  5
23A
  8
0
 10
9.4634978705876165
 20
-38.719024203175351
 30
0.0
 40
3.2000000000000002
  1
SM 87.4.18 MH200
  7
SIMPLEX
  0
LINE
  5
23B
  8
0
 10
172.01765271085361
 20
-43.000000000000099
 30
0.0
 11
0.0
 21
-43.0
 31
0.0
  0
LINE
  5
23C
  8
0
 10
-1.5
 20
-36.50000000000005
 30
0.0
 11
0.0
 21
-36.50000000000005
 31
0.0
  0
LINE
  5
251
  8
0
 10
200.1999999999999
 20
-43.000000000000099
 30
0.0
 11
197.1999999999999
 21
-43.000000000000099
 31
0.0
  0
LINE
  5
253
  8
0
 10
200.1999999999999
 20
-43.000000000000099
 30
0.0
 11
192.95780038807359
 21
-43.000000000000099
 31
0.0
  0
LINE
  5
254
  8
0
 10
202.69999999999999
 20
-36.120899191454782
 30
0.0
 11
202.69999999999999
 21
-37.5
 31
0.0
  0
ARC
  5
255
  8
0
 10
202.1999999999999
 20
-36.120899191454782
 30
0.0
 40
0.5
 50
0.0
 51
86.566369637550437
  0
LINE
  5
256
  8
0
 10
201.6999999999999
 20
-38.500000000000043
 30
0.0
 11
201.6999999999999
 21
-37.50000000000005
 31
0.0
  0
LINE
  5
257
  8
0
 10
202.22994614536401
 20
-35.621796768721879
 30
0.0
 11
200.1999999999999
 21
-35.5
 31
0.0
  0
LINE
  5
258
  8
0
 10
202.69999999999999
 20
-38.500000000000043
 30
0.0
 11
201.6999999999999
 21
-38.500000000000043
 31
0.0
  0
LINE
  5
259
  8
0
 10
202.69999999999999
 20
-37.50000000000005
 30
0.0
 11
201.6999999999999
 21
-37.50000000000005
 31
0.0
  0
ARC
  5
25A
  8
0
 10
202.1999999999999
 20
-39.879100808545317
 30
0.0
 40
0.5
 50
273.43363036244961
 51
0.0
  0
LINE
  5
25B
  8
0
 10
202.22994614536401
 20
-40.378203231278242
 30
0.0
 11
200.1999999999999
 21
-40.50000000000005
 31
0.0
  0
LINE
  5
25C
  8
0
 10
202.69999999999999
 20
-39.879100808545317
 30
0.0
 11
202.69999999999999
 21
-38.500000000000043
 31
0.0
  0
LINE
  5
25D
  8
MITTELLI
 10
206.7093990204088
 20
0.0
 30
0.0
 11
-35.061201382458698
 21
0.0
 31
0.0
  0
LINE
  5
25E
  8
0
 10
200.1999999999999
 20
43.0
 30
0.0
 11
0.0
 21
42.999999999999893
 31
0.0
  0
LINE
  5
25F
  8
0
 10
-1.5
 20
5.0
 30
0.0
 11
-30.5
 21
5.0
 31
0.0
  0
LINE
  5
260
  8
0
 10
-1.5
 20
-5.000000000000056
 30
0.0
 11
-30.5
 21
-5.000000000000056
 31
0.0
  0
LINE
  5
261
  8
0
 10
-30.5
 20
5.0
 30
0.0
 11
-31.5
 21
4.0
 31
0.0
  0
LINE
  5
262
  8
0
 10
-31.5
 20
4.0
 30
0.0
 11
-31.5
 21
-4.0000000000000551
 31
0.0
  0
LINE
  5
263
  8
0
 10
-30.5
 20
-5.000000000000056
 30
0.0
 11
-31.5
 21
-4.0000000000000551
 31
0.0
  0
LINE
  5
264
  8
0
 10
-30.5
 20
5.0
 30
0.0
 11
-30.5
 21
-5.000000000000056
 31
0.0
  0
LINE
  5
265
  8
0
 10
-1.5
 20
36.5
 30
0.0
 11
0.0
 21
36.5
 31
0.0
  0
LINE
  5
266
  8
0
 10
202.69999999999999
 20
39.879100808545218
 30
0.0
 11
202.69999999999999
 21
38.5
 31
0.0
  0
ARC
  5
267
  8
0
 10
202.1999999999999
 20
39.879100808545218
 30
0.0
 40
0.5
 50
0.0
 51
86.566369637550437
  0
LINE
  5
268
  8
0
 10
202.22994614536401
 20
40.378203231278121
 30
0.0
 11
200.1999999999999
 21
40.499999999999993
 31
0.0
  0
LINE
  5
269
  8
0
 10
202.69999999999999
 20
38.5
 30
0.0
 11
201.6999999999999
 21
38.5
 31
0.0
  0
LINE
  5
26A
  8
0
 10
202.69999999999999
 20
36.120899191454662
 30
0.0
 11
202.69999999999999
 21
37.499999999999879
 31
0.0
  0
ARC
  5
26B
  8
0
 10
202.1999999999999
 20
36.120899191454662
 30
0.0
 40
0.5
 50
273.43363036244961
 51
0.0
  0
LINE
  5
26C
  8
0
 10
202.22994614536401
 20
35.621796768721758
 30
0.0
 11
200.1999999999999
 21
35.499999999999879
 31
0.0
  0
LINE
  5
26D
  8
0
 10
202.69999999999999
 20
37.5
 30
0.0
 11
201.6999999999999
 21
37.5
 31
0.0
  0
LINE
  5
26E
  8
0
 10
201.6999999999999
 20
38.5
 30
0.0
 11
201.6999999999999
 21
37.5
 31
0.0
  0
ARC
  5
31A
  8
0
 10
182.59697997255191
 20
-57.160859343329037
 30
0.0
 40
14.93141625830204
 50
56.894423584626963
 51
123.1055764153712
  0
ARC
  5
31B
  8
0
 10
182.48772654946379
 20
-57.192137778978413
 30
0.0
 40
17.005580066645241
 50
54.200970993750452
 51
125.7990290062495
  0
LINE
  5
31C
  8
0
 10
172.0176527108537
 20
-44.841823036288709
 30
0.0
 11
172.0176527108537
 21
-33.625916632134313
 31
0.0
  0
LINE
  5
31D
  8
0
 10
192.95780038807371
 20
-33.625916632134711
 30
0.0
 11
192.95780038807371
 21
-44.653326147505773
 31
0.0
  0
ARC
  5
31E
  8
0
 10
182.48772654946359
 20
-43.22510238154522
 30
0.0
 40
8.6696087345522432
 50
245.3219483027552
 51
294.6780516972446
  0
ARC
  5
31F
  8
0
 10
182.48772654946359
 20
-58.147022374327292
 30
0.0
 40
8.5330334904247067
 50
65.122103603562763
 51
114.87789639643719
  0
LINE
  5
320
  8
0
 10
182.48772654946151
 20
-53.736398831964273
 30
0.0
 11
176.25315830118041
 21
-52.832361296403761
 31
0.0
  0
LINE
  5
321
  8
0
 10
182.48772654946151
 20
-47.658817774853347
 30
0.0
 11
176.25315830118041
 21
-48.562855310413909
 31
0.0
  0
LINE
  5
322
  8
0
 10
182.48772654946359
 20
-43.948394907271862
 30
0.0
 11
176.25315830118271
 21
-44.852432442832431
 31
0.0
  0
ARC
  5
323
  8
0
 10
174.39691993774409
 20
-44.888132888009629
 30
0.0
 40
2.3797178696897441
 50
141.27305377249331
 51
241.89179587316031
  0
LINE
  5
324
  8
0
 10
173.2757439743884
 20
-50.697608303408799
 30
0.0
 11
173.27574397438809
 21
-46.987185435828913
 31
0.0
  0
LINE
  5
325
  8
0
 10
176.25315830118041
 20
-48.562855310413909
 30
0.0
 11
173.2757439743861
 21
-50.697608303410341
 31
0.0
  0
LINE
  5
326
  8
0
 10
176.25315830118009
 20
-52.832361296406823
 30
0.0
 11
173.2757439743861
 21
-50.697608303410341
 31
0.0
  0
ARC
  5
327
  8
0
 10
179.12431573748589
 20
-50.764735127133271
 30
0.0
 40
0.4243268062755158
 50
122.23224679872889
 51
232.8392969757243
  0
LINE
  5
328
  8
0
 10
176.25315830118271
 20
-44.852432442832431
 30
0.0
 11
173.27574397438809
 21
-46.987185435828913
 31
0.0
  0
LINE
  5
329
  8
0
 10
174.44168691625609
 20
-46.151225132146351
 30
0.0
 11
174.44168691625609
 21
-44.653326147505773
 31
0.0
  0
LINE
  5
32A
  8
0
 10
176.25315830118271
 20
-44.852432442832431
 30
0.0
 11
176.25315830118271
 21
-48.562855310413582
 31
0.0
  0
LINE
  5
32B
  8
0
 10
188.72229479774461
 20
-44.852432442832431
 30
0.0
 11
191.69970912453911
 21
-46.987185435828913
 31
0.0
  0
LINE
  5
32C
  8
0
 10
188.722294797747
 20
-52.832361296403761
 30
0.0
 11
191.6997091245413
 21
-50.697608303407279
 31
0.0
  0
LINE
  5
32D
  8
0
 10
188.722294797747
 20
-48.562855310413909
 30
0.0
 11
191.6997091245413
 21
-50.697608303410341
 31
0.0
  0
LINE
  5
32E
  8
0
 10
182.4877265494658
 20
-53.736398831964273
 30
0.0
 11
188.722294797747
 21
-52.832361296403761
 31
0.0
  0
ARC
  5
32F
  8
0
 10
185.8511373614414
 20
-50.764735127133271
 30
0.0
 40
0.4243268062755158
 50
307.16070302427562
 51
57.767753201270999
  0
LINE
  5
330
  8
0
 10
182.4877265494658
 20
-47.658817774853347
 30
0.0
 11
188.722294797747
 21
-48.562855310413909
 31
0.0
  0
LINE
  5
331
  8
0
 10
182.48772654946359
 20
-43.948394907271862
 30
0.0
 11
188.72229479774461
 21
-44.852432442832431
 31
0.0
  0
LINE
  5
332
  8
0
 10
182.48772654946359
 20
-43.948394907271862
 30
0.0
 11
182.48772654946359
 21
-47.658817774853041
 31
0.0
  0
LINE
  5
333
  8
0
 10
188.72229479774461
 20
-44.852432442832431
 30
0.0
 11
188.72229479774461
 21
-48.562855310413582
 31
0.0
  0
LINE
  5
334
  8
0
 10
191.6997091245413
 20
-50.697608303407279
 30
0.0
 11
191.69970912453911
 21
-46.987185435828913
 31
0.0
  0
ARC
  5
335
  8
0
 10
190.57853295310099
 20
-44.888132845362762
 30
0.0
 40
2.3797180053420761
 50
298.10820806217282
 51
38.726942292199382
  0
LINE
  5
336
  8
0
 10
190.75227302884801
 20
-46.151225132146351
 30
0.0
 11
190.75227302884801
 21
-44.653326147505773
 31
0.0
  0
ARC
  5
337
  8
0
 10
182.4877265494635
 20
-40.650378869081983
 30
0.0
 40
12.60815275542957
 50
33.857998802880211
 51
146.14200119711711
  0
ENDSEC
  0
EOF
