  0
SECTION
  2
HEADER
  9
$ACADVER
  1
AC1009
  9
$INSBASE
 10
0.0
 20
0.0
 30
0.0
  9
$EXTMIN
 10
-37.488698383339617
 20
-64.433211868713784
 30
-0.0000000000000022
  9
$EXTMAX
 10
232.30329192285049
 20
43.000100065843071
 30
0.0000000000000132
  9
$LIMMIN
 10
0.0
 20
0.0
  9
$LIMMAX
 10
410.0
 20
287.0
  9
$ORTHOMODE
 70
     1
  9
$REGENMODE
 70
     1
  9
$FILLMODE
 70
     1
  9
$QTEXTMODE
 70
     0
  9
$MIRRTEXT
 70
     1
  9
$DRAGMODE
 70
     2
  9
$LTSCALE
 40
25.0
  9
$OSMODE
 70
    39
  9
$ATTMODE
 70
     1
  9
$TEXTSIZE
 40
5.0
  9
$TRACEWID
 40
0.6
  9
$TEXTSTYLE
  7
TEXT50
  9
$CLAYER
  8
0
  9
$CELTYPE
  6
BYLAYER
  9
$CECOLOR
 62
   256
  9
$DIMSCALE
 40
1.0
  9
$DIMASZ
 40
3.5
  9
$DIMEXO
 40
0.1
  9
$DIMDLI
 40
7.0
  9
$DIMRND
 40
0.0
  9
$DIMDLE
 40
0.0
  9
$DIMEXE
 40
1.8
  9
$DIMTP
 40
0.0
  9
$DIMTM
 40
0.0
  9
$DIMTXT
 40
3.5
  9
$DIMCEN
 40
1.5
  9
$DIMTSZ
 40
0.0
  9
$DIMTOL
 70
     0
  9
$DIMLIM
 70
     0
  9
$DIMTIH
 70
     0
  9
$DIMTOH
 70
     0
  9
$DIMSE1
 70
     0
  9
$DIMSE2
 70
     0
  9
$DIMTAD
 70
     1
  9
$DIMZIN
 70
     0
  9
$DIMBLK
  1

  9
$DIMASO
 70
     0
  9
$DIMSHO
 70
     1
  9
$DIMPOST
  1

  9
$DIMAPOST
  1

  9
$DIMALT
 70
     0
  9
$DIMALTD
 70
     2
  9
$DIMALTF
 40
25.399999999999999
  9
$DIMLFAC
 40
1.0
  9
$DIMTOFL
 70
     0
  9
$DIMTVP
 40
0.0
  9
$DIMTIX
 70
     0
  9
$DIMSOXD
 70
     0
  9
$DIMSAH
 70
     0
  9
$DIMBLK1
  1

  9
$DIMBLK2
  1

  9
$DIMSTYLE
  2
STANDARD
  9
$DIMCLRD
 70
     0
  9
$DIMCLRE
 70
     0
  9
$DIMCLRT
 70
     0
  9
$DIMTFAC
 40
1.0
  9
$DIMGAP
 40
0.09
  9
$LUNITS
 70
     2
  9
$LUPREC
 70
     1
  9
$SKETCHINC
 40
0.1
  9
$FILLETRAD
 40
0.0
  9
$AUNITS
 70
     0
  9
$AUPREC
 70
     0
  9
$MENU
  1
acad
  9
$ELEVATION
 40
0.0
  9
$PELEVATION
 40
0.0
  9
$THICKNESS
 40
0.0
  9
$LIMCHECK
 70
     0
  9
$BLIPMODE
 70
     0
  9
$CHAMFERA
 40
1.0
  9
$CHAMFERB
 40
1.0
  9
$SKPOLY
 70
     0
  9
$TDCREATE
 40
2449016.4831520831
  9
$TDUPDATE
 40
2452677.7498136922
  9
$TDINDWG
 40
0.131911331
  9
$TDUSRTIMER
 40
0.1319110995
  9
$USRTIMER
 70
     1
  9
$ANGBASE
 50
0.0
  9
$ANGDIR
 70
     0
  9
$PDMODE
 70
     0
  9
$PDSIZE
 40
0.0
  9
$PLINEWID
 40
0.0
  9
$COORDS
 70
     0
  9
$SPLFRAME
 70
     0
  9
$SPLINETYPE
 70
     6
  9
$SPLINESEGS
 70
     8
  9
$ATTDIA
 70
     0
  9
$ATTREQ
 70
     1
  9
$HANDLING
 70
  4097
  9
$HANDSEED
  5
31AA
  9
$SURFTAB1
 70
     6
  9
$SURFTAB2
 70
     6
  9
$SURFTYPE
 70
     6
  9
$SURFU
 70
     6
  9
$SURFV
 70
     6
  9
$UCSNAME
  2

  9
$UCSORG
 10
0.0
 20
0.0
 30
0.0
  9
$UCSXDIR
 10
1.0
 20
0.0
 30
0.0
  9
$UCSYDIR
 10
0.0
 20
1.0
 30
0.0
  9
$PUCSNAME
  2

  9
$PUCSORG
 10
0.0
 20
0.0
 30
0.0
  9
$PUCSXDIR
 10
1.0
 20
0.0
 30
0.0
  9
$PUCSYDIR
 10
0.0
 20
1.0
 30
0.0
  9
$USERI1
 70
     0
  9
$USERI2
 70
     0
  9
$USERI3
 70
     0
  9
$USERI4
 70
     0
  9
$USERI5
 70
     0
  9
$USERR1
 40
0.0
  9
$USERR2
 40
0.0
  9
$USERR3
 40
0.0
  9
$USERR4
 40
0.0
  9
$USERR5
 40
0.0
  9
$WORLDVIEW
 70
     1
  9
$SHADEDGE
 70
     3
  9
$SHADEDIF
 70
    70
  9
$TILEMODE
 70
     1
  9
$MAXACTVP
 70
    48
  9
$PLIMCHECK
 70
     0
  9
$PEXTMIN
 10
1.0000000000000000E+020
 20
1.0000000000000000E+020
 30
1.0000000000000000E+020
  9
$PEXTMAX
 10
-1.0000000000000000E+020
 20
-1.0000000000000000E+020
 30
-1.0000000000000000E+020
  9
$PLIMMIN
 10
0.0
 20
0.0
  9
$PLIMMAX
 10
12.0
 20
9.0
  9
$UNITMODE
 70
     0
  9
$VISRETAIN
 70
     1
  9
$PLINEGEN
 70
     0
  9
$PSLTSCALE
 70
     0
  0
ENDSEC
  0
SECTION
  2
TABLES
  0
TABLE
  2
VPORT
 70
     3
  0
VPORT
  2
*ACTIVE
 70
     0
 10
0.0
 20
0.0
 11
1.0
 21
1.0
 12
97.407296769755476
 22
-10.716555901435351
 13
0.0
 23
0.0
 14
0.5
 24
0.5
 15
10.0
 25
10.0
 16
0.0
 26
0.0
 36
1.0
 17
0.0
 27
0.0
 37
0.0
 40
127.9423642270921
 41
2.126099706744867
 42
50.0
 43
0.0
 44
0.0
 50
0.0
 51
0.0
 71
     0
 72
   100
 73
     1
 74
     0
 75
     0
 76
     0
 77
     0
 78
     0
  0
ENDTAB
  0
TABLE
  2
LTYPE
 70
     2
  0
LTYPE
  2
CONTINUOUS
 70
     0
  3
Solid line
 72
    65
 73
     0
 40
0.0
  0
LTYPE
  2
MITTKLEIN
 70
     0
  3
__ . __ . ___ 
 72
    65
 73
     4
 40
0.45
 49
0.25
 49
-0.1
 49
0.0
 49
-0.1
  0
ENDTAB
  0
TABLE
  2
LAYER
 70
     2
  0
LAYER
  2
0
 70
     0
 62
     7
  6
CONTINUOUS
  0
LAYER
  2
MITTELLI
 70
     0
 62
     1
  6
MITTKLEIN
  0
ENDTAB
  0
TABLE
  2
STYLE
 70
     4
  0
STYLE
  2
STANDARD
 70
     0
 40
0.0
 41
1.0
 50
0.0
 71
     0
 42
0.2
  3
txt
  4

  0
STYLE
  2
TEXT50
 70
     0
 40
5.0
 41
1.0
 50
0.0
 71
     0
 42
5.0
  3
8simplex
  4

  0
STYLE
  2
TXT
 70
     0
 40
0.0
 41
1.0
 50
0.0
 71
     0
 42
2.5
  3
8txt
  4

  0
STYLE
  2
SIMPLEX
 70
     0
 40
0.0
 41
0.8
 50
0.0
 71
     0
 42
8.0
  3
simplex
  4

  0
ENDTAB
  0
TABLE
  2
VIEW
 70
     0
  0
ENDTAB
  0
TABLE
  2
UCS
 70
     0
  0
ENDTAB
  0
TABLE
  2
APPID
 70
     1
  0
APPID
  2
ACAD
 70
     0
  0
ENDTAB
  0
TABLE
  2
DIMSTYLE
 70
     1
  0
DIMSTYLE
  2
STANDARD
 70
     0
  3

  4

  5

  6

  7

 40
1.0
 41
0.18
 42
0.0625
 43
0.38
 44
0.18
 45
0.0
 46
0.0
 47
0.0
 48
0.0
140
0.18
141
0.09
142
0.0
143
25.399999999999999
144
1.0
145
0.0
146
1.0
147
0.09
 71
     0
 72
     0
 73
     1
 74
     1
 75
     0
 76
     0
 77
     0
 78
     0
170
     0
171
     2
172
     0
173
     0
174
     0
175
     0
176
     0
177
     0
178
     0
  0
ENDTAB
  0
ENDSEC
  0
SECTION
  2
BLOCKS
  0
BLOCK
  8
0
  2
$MODEL_SPACE
 70
     0
 10
0.0
 20
0.0
 30
0.0
  3
$MODEL_SPACE
  1

  0
ENDBLK
  5
3009
  8
0
  0
BLOCK
 67
     1
  8
0
  2
$PAPER_SPACE
 70
     0
 10
0.0
 20
0.0
 30
0.0
  3
$PAPER_SPACE
  1

  0
ENDBLK
  5
3005
 67
     1
  8
0
  0
ENDSEC
  0
SECTION
  2
ENTITIES
  0
LINE
  5
301A
  8
0
 10
152.19999999999979
 20
42.999999999999929
 30
0.0
 11
152.19999999999979
 21
-43.0
 31
0.0
  0
LINE
  5
301B
  8
0
 10
149.19999999999979
 20
42.999999999999929
 30
0.0
 11
149.19999999999979
 21
-43.0
 31
0.0
  0
LINE
  5
301C
  8
0
 10
226.6999999999997
 20
43.000000000000057
 30
0.0
 11
226.6999999999997
 21
-43.000000000000057
 31
0.0
  0
LINE
  5
301D
  8
0
 10
223.69999999999959
 20
42.999999999999929
 30
0.0
 11
223.69999999999959
 21
-45.0
 31
0.0
  0
LINE
  5
301E
  8
0
 10
194.19999999999959
 20
42.999999999999929
 30
0.0
 11
194.19999999999959
 21
-45.0
 31
0.0
  0
LINE
  5
301F
  8
0
 10
5.6999999999998172
 20
42.999999999999929
 30
0.0
 11
5.6999999999998172
 21
-43.0
 31
0.0
  0
LINE
  5
3020
  8
0
 10
0.0
 20
42.999999999999929
 30
0.0
 11
0.0
 21
-42.999999999999929
 31
0.0
  0
LINE
  5
3021
  8
0
 10
-1.5
 20
36.5
 30
0.0
 11
-1.5
 21
-36.5
 31
0.0
  0
TEXT
  5
3022
  8
0
 10
8.5327792315961233
 20
-38.71902420317528
 30
0.0
 40
3.2000000000000002
  1
SM 87.4.18 M BE50
  7
SIMPLEX
  0
LINE
  5
3023
  8
0
 10
194.19999999999959
 20
-43.0
 30
0.0
 11
0.0
 21
-42.999999999999929
 31
0.0
  0
LINE
  5
3024
  8
0
 10
-1.5
 20
-36.5
 30
0.0
 11
0.0
 21
-36.5
 31
0.0
  0
LINE
  5
302F
  8
MITTELLI
 10
232.30294056670419
 20
0.0
 30
0.0
 11
-37.479969110777454
 21
0.0
 31
0.0
  0
LINE
  5
3030
  8
0
 10
226.6999999999997
 20
43.000000000000057
 30
0.0
 11
0.0
 21
42.999999999999929
 31
0.0
  0
LINE
  5
3031
  8
0
 10
-1.5
 20
5.0
 30
0.0
 11
-30.5
 21
5.0
 31
0.0
  0
LINE
  5
3032
  8
0
 10
-1.5
 20
-5.0
 30
0.0
 11
-30.5
 21
-5.0
 31
0.0
  0
LINE
  5
3033
  8
0
 10
-30.5
 20
5.0
 30
0.0
 11
-31.5
 21
4.0
 31
0.0
  0
LINE
  5
3034
  8
0
 10
-30.5
 20
5.0
 30
0.0
 11
-30.5
 21
-5.0
 31
0.0
  0
LINE
  5
3035
  8
0
 10
-30.5
 20
-5.0
 30
0.0
 11
-31.5
 21
-4.0
 31
0.0
  0
LINE
  5
3036
  8
0
 10
-31.5
 20
4.0
 30
0.0
 11
-31.5
 21
-4.0
 31
0.0
  0
LINE
  5
3037
  8
0
 10
-1.5
 20
36.5
 30
0.0
 11
0.0
 21
36.5
 31
0.0
  0
ARC
  5
3038
  8
0
 10
228.6999999999997
 20
39.879100808545267
 30
0.0
 40
0.5
 50
0.0
 51
86.566369637550437
  0
ARC
  5
3039
  8
0
 10
228.6999999999997
 20
36.120899191454711
 30
0.0
 40
0.5
 50
273.43363036244961
 51
0.0
  0
LINE
  5
303A
  8
0
 10
229.1999999999997
 20
37.5
 30
0.0
 11
228.19999999999959
 21
37.5
 31
0.0
  0
LINE
  5
303B
  8
0
 10
229.1999999999997
 20
38.5
 30
0.0
 11
228.19999999999959
 21
38.5
 31
0.0
  0
LINE
  5
303C
  8
0
 10
228.19999999999959
 20
38.5
 30
0.0
 11
228.19999999999959
 21
37.5
 31
0.0
  0
LINE
  5
303D
  8
0
 10
228.72994614536401
 20
35.621796768721829
 30
0.0
 11
226.6999999999997
 21
35.49999999999995
 31
0.0
  0
LINE
  5
303E
  8
0
 10
228.72994614536401
 20
40.378203231278157
 30
0.0
 11
226.6999999999997
 21
40.499999999999993
 31
0.0
  0
LINE
  5
303F
  8
0
 10
229.1999999999997
 20
36.120899191454711
 30
0.0
 11
229.1999999999997
 21
37.499999999999922
 31
0.0
  0
LINE
  5
3040
  8
0
 10
229.1999999999997
 20
39.879100808545267
 30
0.0
 11
229.1999999999997
 21
38.5
 31
0.0
  0
LINE
  5
3135
  8
0
 10
223.69999999999959
 20
-45.0
 30
0.0
 11
219.45562014642431
 21
-45.0
 31
0.0
  0
LINE
  5
3136
  8
0
 10
208.98772654946131
 20
-53.736398831964173
 30
0.0
 11
202.75315830118029
 21
-52.832361296403647
 31
0.0
  0
LINE
  5
3137
  8
0
 10
208.98772654946561
 20
-53.736398831964173
 30
0.0
 11
215.2222947977468
 21
-52.832361296403647
 31
0.0
  0
LINE
  5
3138
  8
0
 10
219.94999999999959
 20
-44.999999999999943
 30
0.0
 11
219.94999999999959
 21
-57.941176470588182
 31
0.0
  0
LINE
  5
3139
  8
0
 10
197.9499999999997
 20
-57.941176470588182
 30
0.0
 11
197.9499999999997
 21
-44.999999999999943
 31
0.0
  0
ARC
  5
313A
  8
0
 10
208.94999999999959
 20
-50.216931461690052
 30
0.0
 40
14.194833244192219
 50
247.2350767444407
 51
292.76492325555921
  0
LINE
  5
313B
  8
0
 10
214.4427069759443
 20
-64.411764705882291
 30
0.0
 11
203.45729302405499
 21
-64.411764705882291
 31
0.0
  0
LINE
  5
313C
  8
0
 10
219.94999999999959
 20
-61.176470588235247
 30
0.0
 11
197.9499999999997
 21
-61.176470588235247
 31
0.0
  0
LINE
  5
313D
  8
0
 10
219.94999999999959
 20
-57.941176470588182
 30
0.0
 11
197.9499999999997
 21
-57.941176470588182
 31
0.0
  0
LINE
  5
313E
  8
0
 10
200.13054511163841
 20
-61.176470588235247
 30
0.0
 11
200.13054511163841
 21
-57.941176470588182
 31
0.0
  0
ARC
  5
313F
  8
0
 10
200.70364651202749
 20
-60.430253638764242
 30
0.0
 40
3.981511067118523
 50
226.24243683463359
 51
313.75756316536399
  0
LINE
  5
3140
  8
0
 10
197.9499999999997
 20
-63.305990286021832
 30
0.0
 11
197.9499999999997
 21
-61.176470588235247
 31
0.0
  0
LINE
  5
3141
  8
0
 10
203.45729302405499
 20
-64.411764705882291
 30
0.0
 11
200.70364651202729
 21
-64.411764705882291
 31
0.0
  0
LINE
  5
3142
  8
0
 10
217.76945488836091
 20
-61.176470588235247
 30
0.0
 11
217.76945488836091
 21
-57.941176470588182
 31
0.0
  0
ARC
  5
3143
  8
0
 10
217.19635348797141
 20
-60.430253638763219
 30
0.0
 40
3.9815110671192571
 50
226.2424368346451
 51
313.75756316535711
  0
LINE
  5
3144
  8
0
 10
217.19635348797141
 20
-64.411764705882291
 30
0.0
 11
214.4427069759443
 21
-64.411764705882291
 31
0.0
  0
LINE
  5
3145
  8
0
 10
214.4427069759443
 20
-61.176470588235247
 30
0.0
 11
214.4427069759443
 21
-63.305990286022279
 31
0.0
  0
LINE
  5
3146
  8
0
 10
219.94999999999959
 20
-63.305990286022563
 30
0.0
 11
219.94999999999959
 21
-61.176470588235247
 31
0.0
  0
LINE
  5
3147
  8
0
 10
208.9877265494635
 20
-43.948394907271748
 30
0.0
 11
202.75315830118259
 21
-44.852432442832317
 31
0.0
  0
LINE
  5
3148
  8
0
 10
208.98772654946131
 20
-47.65881777485324
 30
0.0
 11
202.75315830118029
 21
-48.562855310413809
 31
0.0
  0
ARC
  5
3149
  8
0
 10
209.09697997255171
 20
-57.160859343328937
 30
0.0
 40
14.93141625830204
 50
56.894423584626963
 51
123.1055764153712
  0
ARC
  5
314A
  8
0
 10
208.98772654946359
 20
-57.192137778978299
 30
0.0
 40
17.005580066645241
 50
54.200970993750452
 51
125.7990290062495
  0
ARC
  5
314B
  8
0
 10
208.9877265494633
 20
-40.650378869081948
 30
0.0
 40
12.60815275542957
 50
33.857998802880211
 51
146.14200119711711
  0
LINE
  5
314C
  8
0
 10
198.5176527108535
 20
-44.841823036288581
 30
0.0
 11
198.5176527108535
 21
-33.625916632134178
 31
0.0
  0
LINE
  5
314D
  8
0
 10
198.5176527108535
 20
-44.841823036288659
 30
0.0
 11
198.5176527108535
 21
-33.62591663213427
 31
0.0
  0
LINE
  5
314E
  8
0
 10
198.51983287821591
 20
-45.0
 30
0.0
 11
194.19999999999959
 21
-45.0
 31
0.0
  0
LINE
  5
314F
  8
0
 10
202.75315830118259
 20
-44.852432442832317
 30
0.0
 11
202.75315830118259
 21
-48.562855310413468
 31
0.0
  0
ARC
  5
3150
  8
0
 10
200.89691993774389
 20
-44.888132888009523
 30
0.0
 40
2.3797178696897441
 50
141.27305377249331
 51
241.89179587316031
  0
LINE
  5
3151
  8
0
 10
202.75315830118259
 20
-44.852432442832317
 30
0.0
 11
199.77574397438801
 21
-46.987185435828813
 31
0.0
  0
LINE
  5
3152
  8
0
 10
199.77574397438821
 20
-50.6976083034087
 30
0.0
 11
199.77574397438801
 21
-46.987185435828813
 31
0.0
  0
LINE
  5
3153
  8
0
 10
202.75315830118029
 20
-48.562855310413809
 30
0.0
 11
199.7757439743859
 21
-50.697608303410227
 31
0.0
  0
LINE
  5
3154
  8
0
 10
202.75315830118001
 20
-52.832361296406717
 30
0.0
 11
199.7757439743859
 21
-50.697608303410227
 31
0.0
  0
LINE
  5
3155
  8
0
 10
198.5176527108535
 20
-43.000000000000007
 30
0.0
 11
196.78148316583921
 21
-43.0
 31
0.0
  0
LINE
  5
3156
  8
0
 10
200.941686916256
 20
-46.151225132146237
 30
0.0
 11
200.941686916256
 21
-44.653326147505659
 31
0.0
  0
LINE
  5
3157
  8
0
 10
219.45780038807339
 20
-33.625916632134569
 30
0.0
 11
219.45780038807339
 21
-44.653326147505652
 31
0.0
  0
LINE
  5
3158
  8
0
 10
219.45780038807351
 20
-33.625916632134661
 30
0.0
 11
219.45780038807351
 21
-44.653326147505723
 31
0.0
  0
ARC
  5
3159
  8
0
 10
212.3511373614412
 20
-50.764735127133171
 30
0.0
 40
0.4243268062755158
 50
307.16070302427562
 51
57.767753201270999
  0
LINE
  5
315A
  8
0
 10
208.98772654946561
 20
-47.65881777485324
 30
0.0
 11
215.2222947977468
 21
-48.562855310413809
 31
0.0
  0
LINE
  5
315B
  8
0
 10
208.9877265494635
 20
-43.948394907271748
 30
0.0
 11
215.2222947977445
 21
-44.852432442832317
 31
0.0
  0
LINE
  5
315C
  8
0
 10
208.9877265494635
 20
-43.948394907271748
 30
0.0
 11
208.9877265494635
 21
-47.658817774852942
 31
0.0
  0
ARC
  5
315D
  8
0
 10
208.9877265494635
 20
-43.225102381545113
 30
0.0
 40
8.6696087345522432
 50
245.3219483027552
 51
294.6780516972446
  0
ARC
  5
315E
  8
0
 10
208.9877265494635
 20
-58.147022374327193
 30
0.0
 40
8.5330334904247067
 50
65.122103603562763
 51
114.87789639643719
  0
ARC
  5
315F
  8
0
 10
205.6243157374858
 20
-50.764735127133171
 30
0.0
 40
0.4243268062755158
 50
122.23224679872889
 51
232.8392969757243
  0
ARC
  5
3160
  8
0
 10
217.07853295310079
 20
-44.888132845362662
 30
0.0
 40
2.3797180053420761
 50
298.10820806217282
 51
38.726942292199382
  0
LINE
  5
3161
  8
0
 10
215.2222947977445
 20
-44.852432442832317
 30
0.0
 11
215.2222947977445
 21
-48.562855310413468
 31
0.0
  0
LINE
  5
3162
  8
0
 10
215.2222947977445
 20
-44.852432442832317
 30
0.0
 11
218.19970912453891
 21
-46.987185435828813
 31
0.0
  0
LINE
  5
3163
  8
0
 10
215.2222947977468
 20
-52.832361296403647
 30
0.0
 11
218.19970912454119
 21
-50.697608303407172
 31
0.0
  0
LINE
  5
3164
  8
0
 10
215.2222947977468
 20
-48.562855310413809
 30
0.0
 11
218.19970912454119
 21
-50.697608303410227
 31
0.0
  0
LINE
  5
3165
  8
0
 10
218.19970912454119
 20
-50.697608303407172
 30
0.0
 11
218.19970912453891
 21
-46.987185435828813
 31
0.0
  0
LINE
  5
3166
  8
0
 10
219.45780038807339
 20
-43.000000000000007
 30
0.0
 11
221.11851683416009
 21
-43.0
 31
0.0
  0
LINE
  5
3167
  8
0
 10
217.25227302884781
 20
-46.151225132146237
 30
0.0
 11
217.25227302884781
 21
-44.653326147505659
 31
0.0
  0
LINE
  5
3168
  8
0
 10
229.1999999999997
 20
-39.879100808545267
 30
0.0
 11
229.1999999999997
 21
-38.5
 31
0.0
  0
LINE
  5
3169
  8
0
 10
226.6999999999997
 20
-43.000000000000057
 30
0.0
 11
223.69999999999959
 21
-43.000000000000057
 31
0.0
  0
ARC
  5
316A
  8
0
 10
228.6999999999997
 20
-39.879100808545267
 30
0.0
 40
0.5
 50
273.43363036244961
 51
0.0
  0
LINE
  5
316B
  8
0
 10
228.7299461453635
 20
-40.37820323127815
 30
0.0
 11
226.6999999999997
 21
-40.499999999999993
 31
0.0
  0
ARC
  5
316C
  8
0
 10
228.6999999999997
 20
-36.120899191454697
 30
0.0
 40
0.5
 50
0.0
 51
86.566369637550423
  0
LINE
  5
316D
  8
0
 10
229.1999999999997
 20
-36.120899191454697
 30
0.0
 11
229.1999999999997
 21
-37.499999999999957
 31
0.0
  0
LINE
  5
316E
  8
0
 10
228.19999999999959
 20
-38.5
 30
0.0
 11
228.19999999999959
 21
-37.5
 31
0.0
  0
LINE
  5
316F
  8
0
 10
229.1999999999997
 20
-38.5
 30
0.0
 11
228.19999999999959
 21
-38.5
 31
0.0
  0
LINE
  5
3170
  8
0
 10
229.1999999999997
 20
-37.5
 30
0.0
 11
228.19999999999959
 21
-37.5
 31
0.0
  0
LINE
  5
3171
  8
0
 10
228.7299461453635
 20
-35.621796768721829
 30
0.0
 11
226.6999999999997
 21
-35.499999999999957
 31
0.0
  0
ENDSEC
  0
EOF
