  0
SECTION
  2
HEADER
  9
$ACADVER
  1
AC1009
  9
$INSBASE
 10
0.0
 20
0.0
 30
0.0
  9
$EXTMIN
 10
-36.16631457865742
 20
-58.17476660072316
 30
-0.0000000000000024
  9
$EXTMAX
 10
159.7403550765145
 20
43.007954520300238
 30
0.000000000000013
  9
$LIMMIN
 10
0.0
 20
0.0
  9
$LIMMAX
 10
410.0
 20
287.0
  9
$ORTHOMODE
 70
     1
  9
$REGENMODE
 70
     1
  9
$FILLMODE
 70
     1
  9
$QTEXTMODE
 70
     0
  9
$MIRRTEXT
 70
     1
  9
$DRAGMODE
 70
     2
  9
$LTSCALE
 40
25.0
  9
$OSMODE
 70
    39
  9
$ATTMODE
 70
     1
  9
$TEXTSIZE
 40
5.0
  9
$TRACEWID
 40
0.6
  9
$TEXTSTYLE
  7
TEXT50
  9
$CLAYER
  8
0
  9
$CELTYPE
  6
BYLAYER
  9
$CECOLOR
 62
   256
  9
$DIMSCALE
 40
1.0
  9
$DIMASZ
 40
3.5
  9
$DIMEXO
 40
0.1
  9
$DIMDLI
 40
7.0
  9
$DIMRND
 40
0.0
  9
$DIMDLE
 40
0.0
  9
$DIMEXE
 40
1.8
  9
$DIMTP
 40
0.0
  9
$DIMTM
 40
0.0
  9
$DIMTXT
 40
3.5
  9
$DIMCEN
 40
1.5
  9
$DIMTSZ
 40
0.0
  9
$DIMTOL
 70
     0
  9
$DIMLIM
 70
     0
  9
$DIMTIH
 70
     0
  9
$DIMTOH
 70
     0
  9
$DIMSE1
 70
     0
  9
$DIMSE2
 70
     0
  9
$DIMTAD
 70
     1
  9
$DIMZIN
 70
     0
  9
$DIMBLK
  1

  9
$DIMASO
 70
     0
  9
$DIMSHO
 70
     1
  9
$DIMPOST
  1

  9
$DIMAPOST
  1

  9
$DIMALT
 70
     0
  9
$DIMALTD
 70
     2
  9
$DIMALTF
 40
25.399999999999999
  9
$DIMLFAC
 40
1.0
  9
$DIMTOFL
 70
     0
  9
$DIMTVP
 40
0.0
  9
$DIMTIX
 70
     0
  9
$DIMSOXD
 70
     0
  9
$DIMSAH
 70
     0
  9
$DIMBLK1
  1

  9
$DIMBLK2
  1

  9
$DIMSTYLE
  2
STANDARD
  9
$DIMCLRD
 70
     0
  9
$DIMCLRE
 70
     0
  9
$DIMCLRT
 70
     0
  9
$DIMTFAC
 40
1.0
  9
$DIMGAP
 40
0.09
  9
$LUNITS
 70
     2
  9
$LUPREC
 70
     1
  9
$SKETCHINC
 40
0.1
  9
$FILLETRAD
 40
0.0
  9
$AUNITS
 70
     0
  9
$AUPREC
 70
     0
  9
$MENU
  1
acad
  9
$ELEVATION
 40
0.0
  9
$PELEVATION
 40
0.0
  9
$THICKNESS
 40
0.0
  9
$LIMCHECK
 70
     0
  9
$BLIPMODE
 70
     0
  9
$CHAMFERA
 40
1.0
  9
$CHAMFERB
 40
1.0
  9
$SKPOLY
 70
     0
  9
$TDCREATE
 40
2449016.4831520831
  9
$TDUPDATE
 40
2452677.7457537958
  9
$TDINDWG
 40
0.1289253356
  9
$TDUSRTIMER
 40
0.1289221991
  9
$USRTIMER
 70
     1
  9
$ANGBASE
 50
0.0
  9
$ANGDIR
 70
     0
  9
$PDMODE
 70
     0
  9
$PDSIZE
 40
0.0
  9
$PLINEWID
 40
0.0
  9
$COORDS
 70
     0
  9
$SPLFRAME
 70
     0
  9
$SPLINETYPE
 70
     6
  9
$SPLINESEGS
 70
     8
  9
$ATTDIA
 70
     0
  9
$ATTREQ
 70
     1
  9
$HANDLING
 70
  4097
  9
$HANDSEED
  5
357
  9
$SURFTAB1
 70
     6
  9
$SURFTAB2
 70
     6
  9
$SURFTYPE
 70
     6
  9
$SURFU
 70
     6
  9
$SURFV
 70
     6
  9
$UCSNAME
  2

  9
$UCSORG
 10
0.0
 20
0.0
 30
0.0
  9
$UCSXDIR
 10
1.0
 20
0.0
 30
0.0
  9
$UCSYDIR
 10
0.0
 20
1.0
 30
0.0
  9
$PUCSNAME
  2

  9
$PUCSORG
 10
0.0
 20
0.0
 30
0.0
  9
$PUCSXDIR
 10
1.0
 20
0.0
 30
0.0
  9
$PUCSYDIR
 10
0.0
 20
1.0
 30
0.0
  9
$USERI1
 70
     0
  9
$USERI2
 70
     0
  9
$USERI3
 70
     0
  9
$USERI4
 70
     0
  9
$USERI5
 70
     0
  9
$USERR1
 40
0.0
  9
$USERR2
 40
0.0
  9
$USERR3
 40
0.0
  9
$USERR4
 40
0.0
  9
$USERR5
 40
0.0
  9
$WORLDVIEW
 70
     1
  9
$SHADEDGE
 70
     3
  9
$SHADEDIF
 70
    70
  9
$TILEMODE
 70
     1
  9
$MAXACTVP
 70
    48
  9
$PLIMCHECK
 70
     0
  9
$PEXTMIN
 10
1.0000000000000000E+020
 20
1.0000000000000000E+020
 30
1.0000000000000000E+020
  9
$PEXTMAX
 10
-1.0000000000000000E+020
 20
-1.0000000000000000E+020
 30
-1.0000000000000000E+020
  9
$PLIMMIN
 10
0.0
 20
0.0
  9
$PLIMMAX
 10
12.0
 20
9.0
  9
$UNITMODE
 70
     0
  9
$VISRETAIN
 70
     1
  9
$PLINEGEN
 70
     0
  9
$PSLTSCALE
 70
     0
  0
ENDSEC
  0
SECTION
  2
TABLES
  0
TABLE
  2
VPORT
 70
     3
  0
VPORT
  2
*ACTIVE
 70
     0
 10
0.0
 20
0.0
 11
1.0
 21
1.0
 12
61.78702024892857
 22
-7.5834060402114574
 13
0.0
 23
0.0
 14
0.5
 24
0.5
 15
10.0
 25
10.0
 16
0.0
 26
0.0
 36
1.0
 17
0.0
 27
0.0
 37
0.0
 40
102.9578565792869
 41
2.126099706744867
 42
50.0
 43
0.0
 44
0.0
 50
0.0
 51
0.0
 71
     0
 72
   100
 73
     1
 74
     0
 75
     0
 76
     0
 77
     0
 78
     0
  0
ENDTAB
  0
TABLE
  2
LTYPE
 70
     2
  0
LTYPE
  2
CONTINUOUS
 70
     0
  3
Solid line
 72
    65
 73
     0
 40
0.0
  0
LTYPE
  2
MITTKLEIN
 70
     0
  3
__ . __ . ___ 
 72
    65
 73
     4
 40
0.45
 49
0.25
 49
-0.1
 49
0.0
 49
-0.1
  0
ENDTAB
  0
TABLE
  2
LAYER
 70
     2
  0
LAYER
  2
0
 70
     0
 62
     7
  6
CONTINUOUS
  0
LAYER
  2
MITTELLI
 70
     0
 62
     1
  6
MITTKLEIN
  0
ENDTAB
  0
TABLE
  2
STYLE
 70
     4
  0
STYLE
  2
TXT
 70
     0
 40
0.0
 41
1.0
 50
0.0
 71
     0
 42
2.5
  3
8txt
  4

  0
STYLE
  2
TEXT50
 70
     0
 40
5.0
 41
1.0
 50
0.0
 71
     0
 42
5.0
  3
8simplex
  4

  0
STYLE
  2
SIMPLEX
 70
     0
 40
0.0
 41
0.8
 50
0.0
 71
     0
 42
8.0
  3
simplex
  4

  0
STYLE
  2
STANDARD
 70
     0
 40
0.0
 41
1.0
 50
0.0
 71
     0
 42
0.2
  3
txt
  4

  0
ENDTAB
  0
TABLE
  2
VIEW
 70
     0
  0
ENDTAB
  0
TABLE
  2
UCS
 70
     0
  0
ENDTAB
  0
TABLE
  2
APPID
 70
     1
  0
APPID
  2
ACAD
 70
     0
  0
ENDTAB
  0
TABLE
  2
DIMSTYLE
 70
     1
  0
DIMSTYLE
  2
STANDARD
 70
     0
  3

  4

  5

  6

  7

 40
1.0
 41
0.18
 42
0.0625
 43
0.38
 44
0.18
 45
0.0
 46
0.0
 47
0.0
 48
0.0
140
0.18
141
0.09
142
0.0
143
25.399999999999999
144
1.0
145
0.0
146
1.0
147
0.09
 71
     0
 72
     0
 73
     1
 74
     1
 75
     0
 76
     0
 77
     0
 78
     0
170
     0
171
     2
172
     0
173
     0
174
     0
175
     0
176
     0
177
     0
178
     0
  0
ENDTAB
  0
ENDSEC
  0
SECTION
  2
BLOCKS
  0
BLOCK
  8
0
  2
$MODEL_SPACE
 70
     0
 10
0.0
 20
0.0
 30
0.0
  3
$MODEL_SPACE
  1

  0
ENDBLK
  5
9
  8
0
  0
BLOCK
 67
     1
  8
0
  2
$PAPER_SPACE
 70
     0
 10
0.0
 20
0.0
 30
0.0
  3
$PAPER_SPACE
  1

  0
ENDBLK
  5
E
 67
     1
  8
0
  0
ENDSEC
  0
SECTION
  2
ENTITIES
  0
LINE
  5
25
  8
0
 10
125.0176527108535
 20
-43.000000000000057
 30
0.0
 11
0.0
 21
-42.999999999999929
 31
0.0
  0
LINE
  5
26
  8
MITTELLI
 10
159.70939902040891
 20
0.0000000000000284
 30
0.0
 11
-36.141861443168182
 21
0.0000000000000008
 31
0.0
  0
LINE
  5
29
  8
0
 10
153.1999999999999
 20
43.000000000000099
 30
0.0
 11
0.0
 21
42.999999999999929
 31
0.0
  0
LINE
  5
2A
  8
0
 10
56.199999999999932
 20
42.999999999999929
 30
0.0
 11
56.199999999999932
 21
-43.0
 31
0.0
  0
LINE
  5
2B
  8
0
 10
53.199999999999932
 20
42.999999999999929
 30
0.0
 11
53.199999999999932
 21
-43.0
 31
0.0
  0
LINE
  5
2C
  8
0
 10
5.6999999999999309
 20
42.999999999999929
 30
0.0
 11
5.6999999999999309
 21
-43.0
 31
0.0
  0
LINE
  5
2D
  8
0
 10
0.0
 20
42.999999999999929
 30
0.0
 11
0.0
 21
-42.999999999999929
 31
0.0
  0
LINE
  5
2E
  8
0
 10
-1.5
 20
36.5
 30
0.0
 11
-1.5
 21
-36.5
 31
0.0
  0
LINE
  5
2F
  8
0
 10
-1.5
 20
5.0
 30
0.0
 11
-30.5
 21
5.0
 31
0.0
  0
LINE
  5
30
  8
0
 10
-1.5
 20
-5.0
 30
0.0
 11
-30.5
 21
-5.0
 31
0.0
  0
LINE
  5
31
  8
0
 10
-30.5
 20
5.0
 30
0.0
 11
-30.5
 21
-5.0
 31
0.0
  0
LINE
  5
32
  8
0
 10
-30.5
 20
-5.0
 30
0.0
 11
-31.5
 21
-4.0
 31
0.0
  0
LINE
  5
33
  8
0
 10
-30.5
 20
5.0
 30
0.0
 11
-31.50000000000011
 21
4.0
 31
0.0
  0
LINE
  5
34
  8
0
 10
-31.50000000000011
 20
4.0
 30
0.0
 11
-31.5
 21
-4.0
 31
0.0
  0
TEXT
  5
35
  8
0
 10
25.26249316149045
 20
-38.719024203175287
 30
0.0
 40
3.2000000000000002
  1
SM 87.1.18   MBH200
  7
SIMPLEX
  0
LINE
  5
37
  8
0
 10
-1.5
 20
-36.5
 30
0.0
 11
0.0
 21
-36.5
 31
0.0
  0
LINE
  5
38
  8
0
 10
-1.5
 20
36.5
 30
0.0
 11
0.0
 21
36.5
 31
0.0
  0
LINE
  5
65
  8
0
 10
150.1999999999999
 20
42.999999999999929
 30
0.0
 11
150.1999999999999
 21
-43.0
 31
0.0
  0
LINE
  5
66
  8
0
 10
102.1999999999999
 20
42.999999999999929
 30
0.0
 11
102.1999999999999
 21
-43.0
 31
0.0
  0
LINE
  5
6A
  8
0
 10
153.1999999999999
 20
43.000000000000099
 30
0.0
 11
153.1999999999999
 21
-43.000000000000057
 31
0.0
  0
LINE
  5
98
  8
0
 10
155.22994614536381
 20
35.621796768721822
 30
0.0
 11
153.1999999999999
 21
35.499999999999957
 31
0.0
  0
LINE
  5
99
  8
0
 10
155.22994614536381
 20
40.37820323127815
 30
0.0
 11
153.1999999999999
 21
40.499999999999993
 31
0.0
  0
ARC
  5
9A
  8
0
 10
155.1999999999999
 20
39.879100808545267
 30
0.0
 40
0.5
 50
0.0
 51
86.566369637550437
  0
LINE
  5
9B
  8
0
 10
155.6999999999999
 20
36.120899191454697
 30
0.0
 11
155.6999999999999
 21
37.499999999999957
 31
0.0
  0
ARC
  5
9C
  8
0
 10
155.1999999999999
 20
36.120899191454697
 30
0.0
 40
0.5
 50
273.43363036244961
 51
0.0
  0
LINE
  5
9D
  8
0
 10
155.6999999999999
 20
39.879100808545267
 30
0.0
 11
155.6999999999999
 21
38.5
 31
0.0
  0
LINE
  5
9E
  8
0
 10
154.69999999999979
 20
38.5
 30
0.0
 11
154.69999999999979
 21
37.5
 31
0.0
  0
LINE
  5
9F
  8
0
 10
155.6999999999999
 20
37.5
 30
0.0
 11
154.69999999999979
 21
37.5
 31
0.0
  0
LINE
  5
A0
  8
0
 10
155.6999999999999
 20
38.5
 30
0.0
 11
154.69999999999979
 21
38.5
 31
0.0
  0
LINE
  5
2F0
  8
0
 10
153.1999999999999
 20
-43.000000000000057
 30
0.0
 11
150.2000000000001
 21
-43.000000000000057
 31
0.0
  0
LINE
  5
2F1
  8
0
 10
153.1999999999999
 20
-43.000000000000057
 30
0.0
 11
145.95780038807371
 21
-43.000000000000057
 31
0.0
  0
LINE
  5
2F2
  8
0
 10
135.4877265494639
 20
-43.948394907271812
 30
0.0
 11
135.4877265494639
 21
-47.658817774852999
 31
0.0
  0
LINE
  5
2F3
  8
0
 10
141.72229479774489
 20
-44.852432442832381
 30
0.0
 11
141.72229479774489
 21
-48.562855310413539
 31
0.0
  0
LINE
  5
2F4
  8
0
 10
144.69970912454161
 20
-50.697608303407229
 30
0.0
 11
144.69970912453931
 21
-46.98718543582887
 31
0.0
  0
LINE
  5
2F5
  8
0
 10
126.2757439743886
 20
-50.697608303408757
 30
0.0
 11
126.27574397438831
 21
-46.98718543582887
 31
0.0
  0
LINE
  5
2F6
  8
0
 10
129.25315830118291
 20
-44.852432442832381
 30
0.0
 11
129.25315830118291
 21
-48.562855310413539
 31
0.0
  0
ARC
  5
2F7
  8
0
 10
135.4877265494639
 20
-43.22510238154517
 30
0.0
 40
8.6696087345522432
 50
245.3219483027552
 51
294.6780516972446
  0
ARC
  5
2F8
  8
0
 10
135.4877265494639
 20
-58.147022374327257
 30
0.0
 40
8.5330334904247067
 50
65.122103603562763
 51
114.87789639643719
  0
LINE
  5
2F9
  8
0
 10
135.48772654946171
 20
-53.73639883196423
 30
0.0
 11
129.2531583011806
 21
-52.832361296403711
 31
0.0
  0
LINE
  5
2FA
  8
0
 10
135.48772654946171
 20
-47.658817774853297
 30
0.0
 11
129.2531583011806
 21
-48.562855310413873
 31
0.0
  0
LINE
  5
2FB
  8
0
 10
139.7505713773829
 20
-58.16950278603133
 30
0.0
 11
131.1659182006218
 21
-58.16950278603133
 31
0.0
  0
ARC
  5
2FC
  8
0
 10
135.45824478900241
 20
-47.076819266136162
 30
0.0
 40
11.092683519895131
 50
247.2350767444407
 51
292.76492325555921
  0
LINE
  5
2FD
  8
0
 10
144.05429636775361
 20
-55.641252321692782
 30
0.0
 11
126.86219321025141
 21
-55.641252321692782
 31
0.0
  0
LINE
  5
2FE
  8
0
 10
128.56620032383691
 20
-55.641252321692782
 30
0.0
 11
128.56620032383691
 21
-53.11300185735422
 31
0.0
  0
ARC
  5
2FF
  8
0
 10
129.0140557054369
 20
-55.058114195639057
 30
0.0
 40
3.1113885903926328
 50
226.24243683463359
 51
313.75756316536399
  0
LINE
  5
300
  8
0
 10
131.1659182006218
 20
-58.16950278603133
 30
0.0
 11
129.0140557054367
 21
-58.16950278603133
 31
0.0
  0
LINE
  5
301
  8
0
 10
126.86219321025141
 20
-57.305385154432777
 30
0.0
 11
126.86219321025141
 21
-55.641252321692782
 31
0.0
  0
LINE
  5
302
  8
0
 10
131.18855662443389
 20
-53.11300185735422
 30
0.0
 11
126.86219321025141
 21
-53.11300185735422
 31
0.0
  0
LINE
  5
303
  8
0
 10
129.2531583011806
 20
-48.562855310413873
 30
0.0
 11
126.2757439743863
 21
-50.697608303410298
 31
0.0
  0
LINE
  5
304
  8
0
 10
129.25315830118029
 20
-52.832361296406781
 30
0.0
 11
126.2757439743863
 21
-50.697608303410298
 31
0.0
  0
LINE
  5
305
  8
0
 10
126.86219321025141
 20
-53.11300185735422
 30
0.0
 11
126.86219321025141
 21
-51.118081950704891
 31
0.0
  0
ARC
  5
306
  8
0
 10
132.12431573748611
 20
-50.764735127133228
 30
0.0
 40
0.4243268062755158
 50
122.23224679872889
 51
232.8392969757243
  0
LINE
  5
307
  8
0
 10
141.7222947977472
 20
-52.832361296403711
 30
0.0
 11
144.69970912454161
 21
-50.697608303407229
 31
0.0
  0
LINE
  5
308
  8
0
 10
141.7222947977472
 20
-48.562855310413873
 30
0.0
 11
144.69970912454161
 21
-50.697608303410298
 31
0.0
  0
LINE
  5
309
  8
0
 10
144.05429636775361
 20
-53.11300185735422
 30
0.0
 11
139.7868964744936
 21
-53.11300185735422
 31
0.0
  0
ARC
  5
30A
  8
0
 10
141.9024338725678
 20
-55.058114195638247
 30
0.0
 40
3.111388590393207
 50
226.24243683464491
 51
313.75756316535711
  0
LINE
  5
30B
  8
0
 10
142.3502892541681
 20
-55.641252321692782
 30
0.0
 11
142.3502892541681
 21
-53.11300185735422
 31
0.0
  0
LINE
  5
30C
  8
0
 10
139.7505713773829
 20
-55.641252321692782
 30
0.0
 11
139.7505713773829
 21
-57.305385154433097
 31
0.0
  0
LINE
  5
30D
  8
0
 10
141.9024338725678
 20
-58.16950278603133
 30
0.0
 11
139.7505713773829
 21
-58.16950278603133
 31
0.0
  0
LINE
  5
30E
  8
0
 10
135.487726549466
 20
-53.73639883196423
 30
0.0
 11
141.7222947977472
 21
-52.832361296403711
 31
0.0
  0
LINE
  5
30F
  8
0
 10
135.487726549466
 20
-47.658817774853297
 30
0.0
 11
141.7222947977472
 21
-48.562855310413873
 31
0.0
  0
ARC
  5
310
  8
0
 10
138.8511373614416
 20
-50.764735127133228
 30
0.0
 40
0.4243268062755158
 50
307.16070302427562
 51
57.767753201270999
  0
LINE
  5
311
  8
0
 10
144.05429636775361
 20
-57.305385154433353
 30
0.0
 11
144.05429636775361
 21
-55.641252321692782
 31
0.0
  0
LINE
  5
312
  8
0
 10
144.05429636775361
 20
-51.160357744044973
 30
0.0
 11
144.05429636775361
 21
-53.11300185735422
 31
0.0
  0
ARC
  5
313
  8
0
 10
135.59697997255211
 20
-57.160859343329001
 30
0.0
 40
14.93141625830204
 50
56.894423584626963
 51
123.1055764153712
  0
ARC
  5
314
  8
0
 10
135.48772654946401
 20
-57.192137778978363
 30
0.0
 40
17.005580066645241
 50
54.200970993750452
 51
125.7990290062495
  0
LINE
  5
315
  8
0
 10
135.4877265494639
 20
-43.948394907271812
 30
0.0
 11
129.25315830118291
 21
-44.852432442832381
 31
0.0
  0
ARC
  5
316
  8
0
 10
135.4877265494637
 20
-40.650378869082012
 30
0.0
 40
12.60815275542957
 50
33.857998802880211
 51
146.14200119711711
  0
LINE
  5
317
  8
0
 10
125.0176527108538
 20
-44.841823036288638
 30
0.0
 11
125.0176527108538
 21
-33.625916632134249
 31
0.0
  0
LINE
  5
318
  8
0
 10
125.0176527108538
 20
-44.841823036288723
 30
0.0
 11
125.0176527108538
 21
-33.625916632134327
 31
0.0
  0
ARC
  5
319
  8
0
 10
127.3969199377443
 20
-44.888132888009579
 30
0.0
 40
2.3797178696897441
 50
141.27305377249331
 51
241.89179587316031
  0
LINE
  5
31A
  8
0
 10
127.4416869162563
 20
-46.151225132146322
 30
0.0
 11
127.4416869162563
 21
-44.65332614750573
 31
0.0
  0
LINE
  5
31B
  8
0
 10
129.25315830118291
 20
-44.852432442832381
 30
0.0
 11
126.27574397438831
 21
-46.98718543582887
 31
0.0
  0
LINE
  5
31C
  8
0
 10
145.95780038807371
 20
-33.62591663213464
 30
0.0
 11
145.95780038807371
 21
-44.653326147505709
 31
0.0
  0
LINE
  5
31D
  8
0
 10
145.95780038807391
 20
-33.625916632134718
 30
0.0
 11
145.95780038807391
 21
-44.65332614750578
 31
0.0
  0
LINE
  5
31E
  8
0
 10
141.72229479774489
 20
-44.852432442832381
 30
0.0
 11
144.69970912453931
 21
-46.98718543582887
 31
0.0
  0
LINE
  5
31F
  8
0
 10
135.4877265494639
 20
-43.948394907271812
 30
0.0
 11
141.72229479774489
 21
-44.852432442832381
 31
0.0
  0
LINE
  5
320
  8
0
 10
143.75227302884821
 20
-46.151225132146322
 30
0.0
 11
143.75227302884821
 21
-44.65332614750573
 31
0.0
  0
ARC
  5
321
  8
0
 10
143.57853295310119
 20
-44.888132845362719
 30
0.0
 40
2.3797180053420761
 50
298.10820806217282
 51
38.726942292199382
  0
LINE
  5
322
  8
0
 10
155.7000000000001
 20
-37.5
 30
0.0
 11
154.7000000000001
 21
-37.5
 31
0.0
  0
LINE
  5
323
  8
0
 10
155.7000000000001
 20
-38.500000000000007
 30
0.0
 11
154.7000000000001
 21
-38.500000000000007
 31
0.0
  0
LINE
  5
324
  8
0
 10
154.7000000000001
 20
-38.500000000000007
 30
0.0
 11
154.7000000000001
 21
-37.5
 31
0.0
  0
LINE
  5
325
  8
0
 10
155.7000000000001
 20
-36.120899191454711
 30
0.0
 11
155.7000000000001
 21
-37.499999999999929
 31
0.0
  0
ARC
  5
326
  8
0
 10
155.1999999999999
 20
-36.120899191454711
 30
0.0
 40
0.5
 50
0.0
 51
86.566369637550423
  0
LINE
  5
327
  8
0
 10
155.7000000000001
 20
-39.879100808545282
 30
0.0
 11
155.7000000000001
 21
-38.500000000000007
 31
0.0
  0
LINE
  5
328
  8
0
 10
155.2299461453639
 20
-35.621796768721829
 30
0.0
 11
153.1999999999999
 21
-35.49999999999995
 31
0.0
  0
LINE
  5
329
  8
0
 10
155.2299461453639
 20
-40.378203231278157
 30
0.0
 11
153.1999999999999
 21
-40.499999999999993
 31
0.0
  0
ARC
  5
32A
  8
0
 10
155.1999999999999
 20
-39.879100808545282
 30
0.0
 40
0.5
 50
273.43363036244961
 51
0.0
  0
ENDSEC
  0
EOF
