  0
SECTION
  2
HEADER
  9
$ACADVER
  1
AC1009
  9
$INSBASE
 10
0.0
 20
0.0
 30
0.0
  9
$EXTMIN
 10
-23.494608484370641
 20
-44.5813740163399
 30
0.0
  9
$EXTMAX
 10
200.0411855340526
 20
34.148550534457819
 30
0.0
  9
$LIMMIN
 10
0.0
 20
0.0
  9
$LIMMAX
 10
410.0
 20
287.0
  9
$ORTHOMODE
 70
     1
  9
$REGENMODE
 70
     1
  9
$FILLMODE
 70
     1
  9
$QTEXTMODE
 70
     0
  9
$MIRRTEXT
 70
     1
  9
$DRAGMODE
 70
     2
  9
$LTSCALE
 40
25.0
  9
$OSMODE
 70
   309
  9
$ATTMODE
 70
     1
  9
$TEXTSIZE
 40
2.0
  9
$TRACEWID
 40
1.0
  9
$TEXTSTYLE
  7
SIMPLEX
  9
$CLAYER
  8
0
  9
$CELTYPE
  6
BYLAYER
  9
$CECOLOR
 62
   256
  9
$DIMSCALE
 40
1.0
  9
$DIMASZ
 40
3.5
  9
$DIMEXO
 40
0.1
  9
$DIMDLI
 40
7.0
  9
$DIMRND
 40
0.0
  9
$DIMDLE
 40
0.0
  9
$DIMEXE
 40
1.8
  9
$DIMTP
 40
0.0
  9
$DIMTM
 40
0.0
  9
$DIMTXT
 40
3.5
  9
$DIMCEN
 40
1.5
  9
$DIMTSZ
 40
0.0
  9
$DIMTOL
 70
     0
  9
$DIMLIM
 70
     1
  9
$DIMTIH
 70
     0
  9
$DIMTOH
 70
     0
  9
$DIMSE1
 70
     0
  9
$DIMSE2
 70
     0
  9
$DIMTAD
 70
     1
  9
$DIMZIN
 70
     0
  9
$DIMBLK
  1

  9
$DIMASO
 70
     0
  9
$DIMSHO
 70
     0
  9
$DIMPOST
  1

  9
$DIMAPOST
  1

  9
$DIMALT
 70
     0
  9
$DIMALTD
 70
     2
  9
$DIMALTF
 40
25.399999999999999
  9
$DIMLFAC
 40
1.0
  9
$DIMTOFL
 70
     0
  9
$DIMTVP
 40
0.0
  9
$DIMTIX
 70
     0
  9
$DIMSOXD
 70
     0
  9
$DIMSAH
 70
     0
  9
$DIMBLK1
  1

  9
$DIMBLK2
  1

  9
$DIMSTYLE
  2
STANDARD
  9
$DIMCLRD
 70
     0
  9
$DIMCLRE
 70
     0
  9
$DIMCLRT
 70
     0
  9
$DIMTFAC
 40
1.0
  9
$DIMGAP
 40
0.09
  9
$LUNITS
 70
     2
  9
$LUPREC
 70
     2
  9
$SKETCHINC
 40
1.0
  9
$FILLETRAD
 40
0.0
  9
$AUNITS
 70
     0
  9
$AUPREC
 70
     0
  9
$MENU
  1
ACAD
  9
$ELEVATION
 40
0.0
  9
$PELEVATION
 40
0.0
  9
$THICKNESS
 40
0.0
  9
$LIMCHECK
 70
     0
  9
$BLIPMODE
 70
     0
  9
$CHAMFERA
 40
0.5
  9
$CHAMFERB
 40
0.5
  9
$SKPOLY
 70
     0
  9
$TDCREATE
 40
2448527.3363592592
  9
$TDUPDATE
 40
2452627.6490472681
  9
$TDINDWG
 40
0.0507455324
  9
$TDUSRTIMER
 40
0.0507455324
  9
$USRTIMER
 70
     1
  9
$ANGBASE
 50
0.0
  9
$ANGDIR
 70
     0
  9
$PDMODE
 70
     0
  9
$PDSIZE
 40
0.0
  9
$PLINEWID
 40
0.0
  9
$COORDS
 70
     0
  9
$SPLFRAME
 70
     0
  9
$SPLINETYPE
 70
     6
  9
$SPLINESEGS
 70
     8
  9
$ATTDIA
 70
     0
  9
$ATTREQ
 70
     1
  9
$HANDLING
 70
  4097
  9
$HANDSEED
  5
280
  9
$SURFTAB1
 70
     6
  9
$SURFTAB2
 70
     6
  9
$SURFTYPE
 70
     6
  9
$SURFU
 70
     6
  9
$SURFV
 70
     6
  9
$UCSNAME
  2

  9
$UCSORG
 10
0.0
 20
0.0
 30
0.0
  9
$UCSXDIR
 10
1.0
 20
0.0
 30
0.0
  9
$UCSYDIR
 10
0.0
 20
1.0
 30
0.0
  9
$PUCSNAME
  2

  9
$PUCSORG
 10
0.0
 20
0.0
 30
0.0
  9
$PUCSXDIR
 10
1.0
 20
0.0
 30
0.0
  9
$PUCSYDIR
 10
0.0
 20
1.0
 30
0.0
  9
$USERI1
 70
     0
  9
$USERI2
 70
     0
  9
$USERI3
 70
     0
  9
$USERI4
 70
     0
  9
$USERI5
 70
     0
  9
$USERR1
 40
0.0
  9
$USERR2
 40
0.0
  9
$USERR3
 40
0.0
  9
$USERR4
 40
0.0
  9
$USERR5
 40
0.0
  9
$WORLDVIEW
 70
     1
  9
$SHADEDGE
 70
     3
  9
$SHADEDIF
 70
    70
  9
$TILEMODE
 70
     1
  9
$MAXACTVP
 70
    64
  9
$PLIMCHECK
 70
     0
  9
$PEXTMIN
 10
1.0000000000000000E+020
 20
1.0000000000000000E+020
 30
1.0000000000000000E+020
  9
$PEXTMAX
 10
-1.0000000000000000E+020
 20
-1.0000000000000000E+020
 30
-1.0000000000000000E+020
  9
$PLIMMIN
 10
0.0
 20
0.0
  9
$PLIMMAX
 10
12.0
 20
9.0
  9
$UNITMODE
 70
     0
  9
$VISRETAIN
 70
     1
  9
$PLINEGEN
 70
     0
  9
$PSLTSCALE
 70
     0
  0
ENDSEC
  0
SECTION
  2
TABLES
  0
TABLE
  2
VPORT
 70
     8
  0
VPORT
  2
*ACTIVE
 70
     0
 10
0.0
 20
0.0
 11
1.0
 21
1.0
 12
72.783834623873304
 22
-6.5588510725625611
 13
0.0
 23
0.0
 14
10.0
 24
10.0
 15
10.0
 25
10.0
 16
0.0
 26
0.0
 36
1.0
 17
0.0
 27
0.0
 37
0.0
 40
108.7665815125676
 41
2.0726744186046511
 42
50.0
 43
0.0
 44
0.0
 50
0.0
 51
0.0
 71
     0
 72
   100
 73
     1
 74
     0
 75
     0
 76
     0
 77
     0
 78
     0
  0
ENDTAB
  0
TABLE
  2
LTYPE
 70
     2
  0
LTYPE
  2
CONTINUOUS
 70
     0
  3
Solid line
 72
    65
 73
     0
 40
0.0
  0
LTYPE
  2
MITTKLEIN
 70
     0
  3
__ . __ . ___ 
 72
    65
 73
     4
 40
0.45
 49
0.25
 49
-0.1
 49
0.0
 49
-0.1
  0
ENDTAB
  0
TABLE
  2
LAYER
 70
     2
  0
LAYER
  2
0
 70
     0
 62
     7
  6
CONTINUOUS
  0
LAYER
  2
MITTELLI
 70
     0
 62
     1
  6
MITTKLEIN
  0
ENDTAB
  0
TABLE
  2
STYLE
 70
     2
  0
STYLE
  2
STANDARD
 70
     0
 40
0.0
 41
1.0
 50
0.0
 71
     0
 42
2.5
  3
txt
  4

  0
STYLE
  2
SIMPLEX
 70
     0
 40
0.0
 41
1.0
 50
0.0
 71
     0
 42
2.0
  3
simplex
  4

  0
ENDTAB
  0
TABLE
  2
VIEW
 70
     0
  0
ENDTAB
  0
TABLE
  2
UCS
 70
     0
  0
ENDTAB
  0
TABLE
  2
APPID
 70
     1
  0
APPID
  2
ACAD
 70
     0
  0
ENDTAB
  0
TABLE
  2
DIMSTYLE
 70
     1
  0
DIMSTYLE
  2
STANDARD
 70
     0
  3

  4

  5

  6

  7

 40
1.0
 41
0.18
 42
0.0625
 43
0.38
 44
0.18
 45
0.0
 46
0.0
 47
0.0
 48
0.0
140
0.18
141
0.09
142
0.0
143
25.399999999999999
144
1.0
145
0.0
146
1.0
147
0.09
 71
     0
 72
     0
 73
     1
 74
     1
 75
     0
 76
     0
 77
     0
 78
     0
170
     0
171
     2
172
     0
173
     0
174
     0
175
     0
176
     0
177
     0
178
     0
  0
ENDTAB
  0
ENDSEC
  0
SECTION
  2
BLOCKS
  0
BLOCK
  8
0
  2
$MODEL_SPACE
 70
     0
 10
0.0
 20
0.0
 30
0.0
  3
$MODEL_SPACE
  1

  0
ENDBLK
  5
9
  8
0
  0
BLOCK
 67
     1
  8
0
  2
$PAPER_SPACE
 70
     0
 10
0.0
 20
0.0
 30
0.0
  3
$PAPER_SPACE
  1

  0
ENDBLK
  5
E
 67
     1
  8
0
  0
ENDSEC
  0
SECTION
  2
ENTITIES
  0
LINE
  5
32
  8
0
 10
161.99999999999989
 20
-27.763152376970961
 30
0.0
 11
161.99999999999989
 21
-36.619741789815428
 31
0.0
  0
LINE
  5
33
  8
0
 10
144.9999999999998
 20
-36.737456304194687
 30
0.0
 11
144.9999999999998
 21
-27.763152376970961
 31
0.0
  0
POLYLINE
  5
34
  8
0
 66
     1
 10
0.0
 20
0.0
 30
0.0
  0
VERTEX
  5
24B
  8
0
 10
160.97863416200499
 20
-38.077214719625971
 30
0.0
 42
0.0281060355247658
  0
VERTEX
  5
24C
  8
0
 10
161.5756013164374
 20
-37.638266290240011
 30
0.0
 42
0.2237701453317199
  0
VERTEX
  5
24D
  8
0
 10
161.99999999999989
 20
-36.737458600714568
 30
0.0
 42
0.2237701453317199
  0
VERTEX
  5
24E
  8
0
 10
161.5756013164374
 20
-35.836650911189018
 30
0.0
 42
0.0904136542735257
  0
VERTEX
  5
24F
  8
0
 10
159.51040764008539
 20
-34.681778118206779
 30
0.0
 42
0.0472389281878793
  0
VERTEX
  5
250
  8
0
 10
156.98002933641899
 20
-34.075569582546251
 30
0.0
 42
0.0351977384400174
  0
VERTEX
  5
251
  8
0
 10
153.4999999999998
 20
-33.830287382446357
 30
0.0
 42
0.0351977384400174
  0
VERTEX
  5
252
  8
0
 10
150.01997066358069
 20
-34.075569582546251
 30
0.0
 42
0.0472389281878785
  0
VERTEX
  5
253
  8
0
 10
147.4895923599141
 20
-34.681778118206779
 30
0.0
 42
0.0904136542735265
  0
VERTEX
  5
254
  8
0
 10
145.42439868356229
 20
-35.836650911189018
 30
0.0
 42
0.2237701453317199
  0
VERTEX
  5
255
  8
0
 10
144.9999999999998
 20
-36.737458600714568
 30
0.0
 42
0.2237701453316992
  0
SEQEND
  5
256
  8
0
  0
POLYLINE
  5
35
  8
0
 66
     1
 10
0.0
 20
0.0
 30
0.0
  0
VERTEX
  5
257
  8
0
 10
160.2094698812642
 20
-36.619741789815428
 30
0.0
 42
0.2731152870690181
  0
VERTEX
  5
258
  8
0
 10
159.95780200359951
 20
-36.193373350516218
 30
0.0
 42
0.0700088097817572
  0
VERTEX
  5
259
  8
0
 10
158.27029012009129
 20
-35.549399968121257
 30
0.0
 42
0.0325979155678093
  0
VERTEX
  5
25A
  8
0
 10
156.31656555560659
 20
-35.234927100627907
 30
0.0
 42
0.0236091564415925
  0
VERTEX
  5
25B
  8
0
 10
153.5886960407887
 20
-35.106049869200461
 30
0.0
 42
0.0236091564415893
  0
VERTEX
  5
25C
  8
0
 10
150.86082652597091
 20
-35.234927100627907
 30
0.0
 42
0.0325979155678108
  0
VERTEX
  5
25D
  8
0
 10
148.90710196148601
 20
-35.549399968121257
 30
0.0
 42
0.0700088097817651
  0
VERTEX
  5
25E
  8
0
 10
147.21959007797781
 20
-36.193373350516282
 30
0.0
 42
0.2731152870690337
  0
VERTEX
  5
25F
  8
0
 10
146.9679222003131
 20
-36.619741789815428
 30
0.0
 42
0.2731152870690181
  0
SEQEND
  5
260
  8
0
  0
LINE
  5
3A
  8
0
 10
148.43854284819199
 20
-36.744081777682389
 30
0.0
 11
146.02136583799489
 21
-38.077214719625061
 31
0.0
  0
LINE
  5
3B
  8
0
 10
148.4385428481902
 20
-39.061205571178981
 30
0.0
 11
146.0213658379933
 21
-40.394338513121703
 31
0.0
  0
LINE
  5
3C
  8
0
 10
148.4385428481902
 20
-41.727471455062378
 30
0.0
 11
146.0213658379933
 21
-40.394338513119777
 31
0.0
  0
LINE
  5
3D
  8
0
 10
146.02136583799509
 20
-40.39433851312068
 30
0.0
 11
146.02136583799489
 21
-38.077214719625061
 31
0.0
  0
POLYLINE
  5
3E
  8
0
 66
     1
 10
0.0
 20
0.0
 30
0.0
  0
VERTEX
  5
261
  8
0
 10
144.9999999999998
 20
-36.737458600714568
 30
0.0
 42
0.2237701453316992
  0
VERTEX
  5
262
  8
0
 10
145.42439868356229
 20
-37.638266290240011
 30
0.0
 42
0.0281060355247781
  0
VERTEX
  5
263
  8
0
 10
146.02136583799489
 20
-38.077214719626141
 30
0.0
 42
0.0472389281878785
  0
SEQEND
  5
264
  8
0
  0
LINE
  5
3F
  8
0
 10
153.50000000000139
 20
-38.496642727907521
 30
0.0
 11
158.56145715180949
 21
-39.061205571178981
 31
0.0
  0
LINE
  5
40
  8
0
 10
153.4999999999998
 20
-36.179518934410872
 30
0.0
 11
158.5614571518077
 21
-36.744081777682389
 31
0.0
  0
LINE
  5
41
  8
0
 10
153.50000000000139
 20
-42.292034298333959
 30
0.0
 11
158.56145715180949
 21
-41.727471455062378
 31
0.0
  0
POLYLINE
  5
42
  8
0
 66
     1
 10
0.0
 20
0.0
 30
0.0
 70
     1
  0
VERTEX
  5
265
  8
0
 10
150.4250233620333
 20
-40.438172802074938
 30
0.0
 42
0.2734846770915285
  0
VERTEX
  5
266
  8
0
 10
150.54499007875381
 20
-40.641098141537753
 30
0.0
 42
0.0698406894454859
  0
VERTEX
  5
267
  8
0
 10
151.35164163618609
 20
-40.947964436923449
 30
0.0
 42
0.0324975942184885
  0
VERTEX
  5
268
  8
0
 10
152.28516583583661
 20
-41.097741320293743
 30
0.0
 42
0.0235329147872133
  0
VERTEX
  5
269
  8
0
 10
153.5886960407887
 20
-41.159127046062139
 30
0.0
 42
0.0235329147872034
  0
VERTEX
  5
26A
  8
0
 10
154.89222624574069
 20
-41.097741320293807
 30
0.0
 42
0.0324975942184783
  0
VERTEX
  5
26B
  8
0
 10
155.82575044539121
 20
-40.947964436923449
 30
0.0
 42
0.0698406894454743
  0
VERTEX
  5
26C
  8
0
 10
156.63240200282351
 20
-40.641098141537753
 30
0.0
 42
0.273484677091417
  0
VERTEX
  5
26D
  8
0
 10
156.75236871954419
 20
-40.438172802074938
 30
0.0
 42
0.2734846770913384
  0
VERTEX
  5
26E
  8
0
 10
156.6324020028238
 20
-40.235247462612193
 30
0.0
 42
0.0698406894454781
  0
VERTEX
  5
26F
  8
0
 10
155.82575044539121
 20
-39.928381167226433
 30
0.0
 42
0.0324975942184691
  0
VERTEX
  5
270
  8
0
 10
154.89222624574089
 20
-39.77860428385614
 30
0.0
 42
0.0235329147872092
  0
VERTEX
  5
271
  8
0
 10
153.5886960407887
 20
-39.717218558087751
 30
0.0
 42
0.0235329147872122
  0
VERTEX
  5
272
  8
0
 10
152.28516583583661
 20
-39.77860428385614
 30
0.0
 42
0.0324975942184835
  0
VERTEX
  5
273
  8
0
 10
151.35164163618609
 20
-39.928381167226433
 30
0.0
 42
0.0698406894454898
  0
VERTEX
  5
274
  8
0
 10
150.54499007875381
 20
-40.235247462612193
 30
0.0
 42
0.2734846770914499
  0
SEQEND
  5
275
  8
0
  0
LINE
  5
43
  8
0
 10
153.49999999999801
 20
-42.292034298333959
 30
0.0
 11
148.4385428481902
 21
-41.727471455062378
 31
0.0
  0
LINE
  5
44
  8
0
 10
153.49999999999801
 20
-38.496642727907521
 30
0.0
 11
148.4385428481902
 21
-39.061205571178981
 31
0.0
  0
LINE
  5
45
  8
0
 10
153.4999999999998
 20
-36.179518934410872
 30
0.0
 11
148.43854284819199
 21
-36.744081777682389
 31
0.0
  0
LINE
  5
46
  8
0
 10
148.43854284819199
 20
-36.744081777682389
 30
0.0
 11
148.43854284819199
 21
-39.061205571178817
 31
0.0
  0
LINE
  5
47
  8
0
 10
146.9679222003131
 20
-37.555165460225084
 30
0.0
 11
146.9679222003131
 21
-36.619741789815428
 31
0.0
  0
LINE
  5
48
  8
0
 10
153.4999999999998
 20
-36.179518934410872
 30
0.0
 11
153.4999999999998
 21
-38.532719951127739
 31
0.0
  0
LINE
  5
49
  8
0
 10
158.56145715180949
 20
-41.727471455062378
 30
0.0
 11
160.97863416200639
 21
-40.394338513119777
 31
0.0
  0
LINE
  5
4A
  8
0
 10
158.5614571518077
 20
-36.744081777682389
 30
0.0
 11
160.97863416200451
 21
-38.077214719625061
 31
0.0
  0
LINE
  5
4B
  8
0
 10
158.56145715180949
 20
-39.061205571178981
 30
0.0
 11
160.97863416200639
 21
-40.394338513121703
 31
0.0
  0
LINE
  5
4C
  8
0
 10
158.5614571518077
 20
-36.744081777682389
 30
0.0
 11
158.5614571518077
 21
-39.061205571178817
 31
0.0
  0
LINE
  5
4D
  8
0
 10
160.97863416200639
 20
-40.394338513119777
 30
0.0
 11
160.97863416200451
 21
-38.077214719625061
 31
0.0
  0
LINE
  5
4E
  8
0
 10
160.2094698812642
 20
-37.555165460225084
 30
0.0
 11
160.2094698812642
 21
-36.619741789815428
 31
0.0
  0
LINE
  5
59
  8
MITTELLI
 10
-23.494608484370641
 20
0.0000000000000284
 30
0.0
 11
175.05186023765521
 21
-0.0000000000001421
 31
0.0
  0
LINE
  5
5C
  8
0
 10
0.0
 20
28.249960200000029
 30
0.0
 11
170.0
 21
28.24996019999983
 31
0.0
  0
LINE
  5
5D
  8
0
 10
0.0
 20
-28.24996019999983
 30
0.0
 11
144.9999999999998
 21
-28.2499602
 31
0.0
  0
TEXT
  5
5E
  8
0
 10
7.2834615200185331
 20
-22.131375735211488
 30
0.0
 40
3.2000000000000002
  1
SM 56.3.18JB
  7
SIMPLEX
  0
LINE
  5
5F
  8
0
 10
-1.5
 20
19.05000000000009
 30
0.0
 11
-1.4999999999999849
 21
-19.049999999999919
 31
0.0
  0
LINE
  5
60
  8
0
 10
0.0
 20
28.249960200000029
 30
0.0
 11
0.0
 21
-28.24996019999983
 31
0.0
  0
LINE
  5
61
  8
0
 10
4.6999999999999877
 20
28.2499602
 30
0.0
 11
4.6999999999999877
 21
-28.2499602
 31
0.0
  0
LINE
  5
62
  8
0
 10
-1.5
 20
3.1750000000000389
 30
0.0
 11
-20.499999999999979
 21
3.1750000000001251
 31
0.0
  0
LINE
  5
63
  8
0
 10
-1.5
 20
-3.1749999999999261
 30
0.0
 11
-20.499999999999979
 21
-3.1749999999999261
 31
0.0
  0
LINE
  5
64
  8
0
 10
-21.0
 20
2.6750000000000962
 30
0.0
 11
-21.000000000000011
 21
-2.6749999999999261
 31
0.0
  0
LINE
  5
65
  8
0
 10
-20.499999999999979
 20
3.1750000000001251
 30
0.0
 11
-20.499999999999979
 21
-3.1749999999999261
 31
0.0
  0
LINE
  5
66
  8
0
 10
-20.500000000000011
 20
-3.1749999999999261
 30
0.0
 11
-21.000000000000011
 21
-2.6749999999999261
 31
0.0
  0
LINE
  5
67
  8
0
 10
-21.0
 20
2.6750000000000962
 30
0.0
 11
-20.5
 21
3.1750000000000962
 31
0.0
  0
LINE
  5
68
  8
0
 10
-0.0000000000000142
 20
-19.049999999999951
 30
0.0
 11
-1.5
 21
-19.049999999999951
 31
0.0
  0
LINE
  5
69
  8
0
 10
0.0
 20
19.05000000000009
 30
0.0
 11
-1.5
 21
19.05000000000009
 31
0.0
  0
LINE
  5
6A
  8
0
 10
96.699999999999989
 20
28.2499602
 30
0.0
 11
96.699999999999989
 21
-28.2499602
 31
0.0
  0
LINE
  5
6B
  8
0
 10
105.0
 20
28.2499602
 30
0.0
 11
105.0
 21
-28.2499602
 31
0.0
  0
LINE
  5
70
  8
0
 10
167.0
 20
28.24996019999983
 30
0.0
 11
167.0
 21
-28.249960200000171
 31
0.0
  0
LINE
  5
71
  8
0
 10
170.0
 20
28.24996019999983
 30
0.0
 11
170.0
 21
-28.2499602
 31
0.0
  0
LINE
  5
72
  8
0
 10
167.0
 20
28.2499602
 30
0.0
 11
167.0
 21
-28.2499602
 31
0.0
  0
LINE
  5
73
  8
0
 10
161.99999999999989
 20
-28.2499602
 30
0.0
 11
170.0
 21
-28.2499602
 31
0.0
  0
POLYLINE
  5
74
  8
0
 66
     1
 10
0.0
 20
0.0
 30
0.0
  0
VERTEX
  5
276
  8
0
 10
161.99999999999989
 20
-27.763152376970961
 30
0.0
 42
0.2001681619167957
  0
VERTEX
  5
277
  8
0
 10
161.52929248757471
 20
-26.634482531928342
 30
0.0
 42
0.0981313231116659
  0
VERTEX
  5
278
  8
0
 10
159.51040764008539
 20
-25.297498165411501
 30
0.0
 42
0.0553010999546279
  0
VERTEX
  5
279
  8
0
 10
156.96322044257639
 20
-24.568337572620429
 30
0.0
 42
0.0421037198092917
  0
VERTEX
  5
27A
  8
0
 10
153.4999999999998
 20
-24.276190750861218
 30
0.0
 42
0.0421037198092914
  0
VERTEX
  5
27B
  8
0
 10
150.03677955742319
 20
-24.568337572620429
 30
0.0
 42
0.0553010999546256
  0
VERTEX
  5
27C
  8
0
 10
147.4895923599143
 20
-25.297498165411501
 30
0.0
 42
0.0981313231116634
  0
VERTEX
  5
27D
  8
0
 10
145.47070751242501
 20
-26.634482531928342
 30
0.0
 42
0.2001681619167846
  0
VERTEX
  5
27E
  8
0
 10
145.00000000000011
 20
-27.763152376970961
 30
0.0
 42
0.2001681619167846
  0
SEQEND
  5
27F
  8
0
  0
ENDSEC
  0
EOF
