  0
SECTION
  2
HEADER
  9
$ACADVER
  1
AC1009
  9
$INSBASE
 10
0.0
 20
0.0
 30
0.0
  9
$EXTMIN
 10
-23.497562607867959
 20
-41.579195042343713
 30
-0.0000000000000058
  9
$EXTMAX
 10
116.4086441597934
 20
28.263919694796179
 30
0.0000000000000104
  9
$LIMMIN
 10
0.0
 20
0.0
  9
$LIMMAX
 10
410.0
 20
287.0
  9
$ORTHOMODE
 70
     0
  9
$REGENMODE
 70
     1
  9
$FILLMODE
 70
     1
  9
$QTEXTMODE
 70
     0
  9
$MIRRTEXT
 70
     1
  9
$DRAGMODE
 70
     2
  9
$LTSCALE
 40
25.0
  9
$OSMODE
 70
    39
  9
$ATTMODE
 70
     1
  9
$TEXTSIZE
 40
2.0
  9
$TRACEWID
 40
1.0
  9
$TEXTSTYLE
  7
SIMPLEX
  9
$CLAYER
  8
0
  9
$CELTYPE
  6
BYLAYER
  9
$CECOLOR
 62
   256
  9
$DIMSCALE
 40
1.0
  9
$DIMASZ
 40
3.5
  9
$DIMEXO
 40
0.1
  9
$DIMDLI
 40
7.0
  9
$DIMRND
 40
0.0
  9
$DIMDLE
 40
0.0
  9
$DIMEXE
 40
1.8
  9
$DIMTP
 40
0.0
  9
$DIMTM
 40
0.0
  9
$DIMTXT
 40
3.5
  9
$DIMCEN
 40
1.5
  9
$DIMTSZ
 40
0.0
  9
$DIMTOL
 70
     0
  9
$DIMLIM
 70
     1
  9
$DIMTIH
 70
     0
  9
$DIMTOH
 70
     0
  9
$DIMSE1
 70
     0
  9
$DIMSE2
 70
     0
  9
$DIMTAD
 70
     1
  9
$DIMZIN
 70
     0
  9
$DIMBLK
  1

  9
$DIMASO
 70
     0
  9
$DIMSHO
 70
     0
  9
$DIMPOST
  1

  9
$DIMAPOST
  1

  9
$DIMALT
 70
     0
  9
$DIMALTD
 70
     2
  9
$DIMALTF
 40
25.399999999999999
  9
$DIMLFAC
 40
1.0
  9
$DIMTOFL
 70
     0
  9
$DIMTVP
 40
0.0
  9
$DIMTIX
 70
     0
  9
$DIMSOXD
 70
     0
  9
$DIMSAH
 70
     0
  9
$DIMBLK1
  1

  9
$DIMBLK2
  1

  9
$DIMSTYLE
  2
STANDARD
  9
$DIMCLRD
 70
     0
  9
$DIMCLRE
 70
     0
  9
$DIMCLRT
 70
     0
  9
$DIMTFAC
 40
1.0
  9
$DIMGAP
 40
0.09
  9
$LUNITS
 70
     2
  9
$LUPREC
 70
     2
  9
$SKETCHINC
 40
1.0
  9
$FILLETRAD
 40
0.0
  9
$AUNITS
 70
     0
  9
$AUPREC
 70
     0
  9
$MENU
  1
ACAD
  9
$ELEVATION
 40
0.0
  9
$PELEVATION
 40
0.0
  9
$THICKNESS
 40
0.0
  9
$LIMCHECK
 70
     0
  9
$BLIPMODE
 70
     0
  9
$CHAMFERA
 40
0.5
  9
$CHAMFERB
 40
0.5
  9
$SKPOLY
 70
     0
  9
$TDCREATE
 40
2448527.3363592592
  9
$TDUPDATE
 40
2452677.733470161
  9
$TDINDWG
 40
0.0592941782
  9
$TDUSRTIMER
 40
0.0592941782
  9
$USRTIMER
 70
     1
  9
$ANGBASE
 50
0.0
  9
$ANGDIR
 70
     0
  9
$PDMODE
 70
     0
  9
$PDSIZE
 40
0.0
  9
$PLINEWID
 40
0.0
  9
$COORDS
 70
     0
  9
$SPLFRAME
 70
     0
  9
$SPLINETYPE
 70
     6
  9
$SPLINESEGS
 70
     8
  9
$ATTDIA
 70
     0
  9
$ATTREQ
 70
     1
  9
$HANDLING
 70
  4097
  9
$HANDSEED
  5
2CB
  9
$SURFTAB1
 70
     6
  9
$SURFTAB2
 70
     6
  9
$SURFTYPE
 70
     6
  9
$SURFU
 70
     6
  9
$SURFV
 70
     6
  9
$UCSNAME
  2

  9
$UCSORG
 10
0.0
 20
0.0
 30
0.0
  9
$UCSXDIR
 10
1.0
 20
0.0
 30
0.0
  9
$UCSYDIR
 10
0.0
 20
1.0
 30
0.0
  9
$PUCSNAME
  2

  9
$PUCSORG
 10
0.0
 20
0.0
 30
0.0
  9
$PUCSXDIR
 10
1.0
 20
0.0
 30
0.0
  9
$PUCSYDIR
 10
0.0
 20
1.0
 30
0.0
  9
$USERI1
 70
     0
  9
$USERI2
 70
     0
  9
$USERI3
 70
     0
  9
$USERI4
 70
     0
  9
$USERI5
 70
     0
  9
$USERR1
 40
0.0
  9
$USERR2
 40
0.0
  9
$USERR3
 40
0.0
  9
$USERR4
 40
0.0
  9
$USERR5
 40
0.0
  9
$WORLDVIEW
 70
     1
  9
$SHADEDGE
 70
     3
  9
$SHADEDIF
 70
    70
  9
$TILEMODE
 70
     1
  9
$MAXACTVP
 70
    48
  9
$PLIMCHECK
 70
     0
  9
$PEXTMIN
 10
1.0000000000000000E+020
 20
1.0000000000000000E+020
 30
1.0000000000000000E+020
  9
$PEXTMAX
 10
-1.0000000000000000E+020
 20
-1.0000000000000000E+020
 30
-1.0000000000000000E+020
  9
$PLIMMIN
 10
0.0
 20
0.0
  9
$PLIMMAX
 10
12.0
 20
9.0
  9
$UNITMODE
 70
     0
  9
$VISRETAIN
 70
     1
  9
$PLINEGEN
 70
     0
  9
$PSLTSCALE
 70
     0
  0
ENDSEC
  0
SECTION
  2
TABLES
  0
TABLE
  2
VPORT
 70
     3
  0
VPORT
  2
*ACTIVE
 70
     0
 10
0.0
 20
0.0
 11
1.0
 21
1.0
 12
46.455540775962739
 22
-6.6576376737737633
 13
0.0
 23
0.0
 14
10.0
 24
10.0
 15
10.0
 25
10.0
 16
0.0
 26
0.0
 36
1.0
 17
0.0
 27
0.0
 37
0.0
 40
71.068432539545853
 41
2.126099706744867
 42
50.0
 43
0.0
 44
0.0
 50
0.0
 51
0.0
 71
     0
 72
   100
 73
     1
 74
     0
 75
     0
 76
     0
 77
     0
 78
     0
  0
ENDTAB
  0
TABLE
  2
LTYPE
 70
     3
  0
LTYPE
  2
CONTINUOUS
 70
     0
  3
Solid line
 72
    65
 73
     0
 40
0.0
  0
LTYPE
  2
MITTKLEIN
 70
     0
  3
__ . __ . ___ 
 72
    65
 73
     4
 40
0.45
 49
0.25
 49
-0.1
 49
0.0
 49
-0.1
  0
LTYPE
  2
VERDECKT
 70
     0
  3
_ _ _ _ _ _ _ _ _ _ _ _ _ _ _ _ _ _ _ _ _ _ _
 72
    65
 73
     2
 40
0.375
 49
0.25
 49
-0.125
  0
ENDTAB
  0
TABLE
  2
LAYER
 70
     5
  0
LAYER
  2
0
 70
     0
 62
     7
  6
CONTINUOUS
  0
LAYER
  2
KON35
 70
     0
 62
     2
  6
CONTINUOUS
  0
LAYER
  2
TEXT35
 70
     0
 62
     2
  6
CONTINUOUS
  0
LAYER
  2
MITTELLI
 70
     0
 62
     1
  6
MITTKLEIN
  0
LAYER
  2
VERDECKT
 70
     0
 62
     1
  6
VERDECKT
  0
ENDTAB
  0
TABLE
  2
STYLE
 70
     3
  0
STYLE
  2
STANDARD
 70
     0
 40
0.0
 41
1.0
 50
0.0
 71
     0
 42
2.5
  3
txt
  4

  0
STYLE
  2
TEXT35
 70
     0
 40
3.5
 41
1.0
 50
0.0
 71
     0
 42
3.5
  3
simplex
  4

  0
STYLE
  2
SIMPLEX
 70
     0
 40
0.0
 41
1.0
 50
0.0
 71
     0
 42
2.0
  3
simplex
  4

  0
ENDTAB
  0
TABLE
  2
VIEW
 70
     0
  0
ENDTAB
  0
TABLE
  2
UCS
 70
     0
  0
ENDTAB
  0
TABLE
  2
APPID
 70
     1
  0
APPID
  2
ACAD
 70
     0
  0
ENDTAB
  0
TABLE
  2
DIMSTYLE
 70
     1
  0
DIMSTYLE
  2
STANDARD
 70
     0
  3

  4

  5

  6

  7

 40
1.0
 41
0.18
 42
0.0625
 43
0.38
 44
0.18
 45
0.0
 46
0.0
 47
0.0
 48
0.0
140
0.18
141
0.09
142
0.0
143
25.399999999999999
144
1.0
145
0.0
146
1.0
147
0.09
 71
     0
 72
     0
 73
     1
 74
     1
 75
     0
 76
     0
 77
     0
 78
     0
170
     0
171
     2
172
     0
173
     0
174
     0
175
     0
176
     0
177
     0
178
     0
  0
ENDTAB
  0
ENDSEC
  0
SECTION
  2
BLOCKS
  0
BLOCK
  8
0
  2
$MODEL_SPACE
 70
     0
 10
0.0
 20
0.0
 30
0.0
  3
$MODEL_SPACE
  1

  0
ENDBLK
  5
B4
  8
0
  0
BLOCK
 67
     1
  8
0
  2
$PAPER_SPACE
 70
     0
 10
0.0
 20
0.0
 30
0.0
  3
$PAPER_SPACE
  1

  0
ENDBLK
  5
B9
 67
     1
  8
0
  0
BLOCK
  8
0
  2
ACAD
 70
     0
 10
0.0
 20
0.0
 30
0.0
  3
ACAD
  1

  0
ENDBLK
  5
B
  8
0
  0
BLOCK
  8
0
  2
CAD
 70
     0
 10
0.0
 20
0.0
 30
0.0
  3
CAD
  1

  0
INSERT
  5
1E
  8
KON35
  2
ACAD
 10
219.7466754081957
 20
258.0988816558845
 30
0.0
  0
ENDBLK
  5
20
  8
0
  0
ENDSEC
  0
SECTION
  2
ENTITIES
  0
INSERT
  5
3
  8
KON35
  2
ACAD
 10
611.67473072830069
 20
262.34888165588433
 30
0.0
  0
LINE
  5
C
  8
MITTELLI
 10
-23.494608484370641
 20
0.0
 30
0.0
 11
116.37829791080721
 21
-0.0000000000000568
 31
0.0
  0
LINE
  5
F
  8
0
 10
0.0
 20
28.2499602
 30
0.0
 11
0.0
 21
-28.249960199999862
 31
0.0
  0
INSERT
  5
11
  8
KON35
  2
ACAD
 10
1001.6640374469659
 20
269.19283483160649
 30
0.0
  0
INSERT
  5
12
  8
KON35
  2
ACAD
 10
1687.9183674146921
 20
382.30321741200709
 30
0.0
  0
LINE
  5
13
  8
0
 10
0.0
 20
28.2499602
 30
0.0
 11
114.0
 21
28.249960199999862
 31
0.0
  0
LINE
  5
14
  8
0
 10
0.0
 20
-28.249960199999862
 30
0.0
 11
88.999999999999943
 21
-28.249960199999968
 31
0.0
  0
INSERT
  5
15
  8
KON35
  2
ACAD
 10
1001.014675725944
 20
263.03967115788242
 30
0.0
  0
INSERT
  5
16
  8
KON35
  2
ACAD
 10
1201.8720286009509
 20
326.92890892106499
 30
0.0
  0
INSERT
  5
17
  8
KON35
  2
ACAD
 10
1001.003878233722
 20
262.34888165588433
 30
0.0
  0
INSERT
  5
18
  8
KON35
  2
ACAD
 10
1033.981913451516
 20
270.24018600371039
 30
0.0
  0
INSERT
  5
19
  8
KON35
  2
ACAD
 10
1220.3384542935071
 20
310.44614540078669
 30
0.0
  0
INSERT
  5
1A
  8
VERDECKT
  2
CAD
 10
1321.9481047729359
 20
40.273542154209757
 30
0.0
  0
INSERT
  5
21
  8
VERDECKT
  2
CAD
 10
1635.6172637074631
 20
123.4404418294079
 30
0.0
  0
INSERT
  5
22
  8
KON35
  2
ACAD
 10
2241.7967140075689
 20
260.25567566346808
 30
0.0
  0
INSERT
  5
23
  8
KON35
  2
ACAD
 10
2230.2789686957649
 20
463.99045464595349
 30
0.0
  0
INSERT
  5
2A
  8
KON35
  2
ACAD
 10
999.76870324790366
 20
265.6336243336047
 30
0.0
  0
INSERT
  5
2B
  8
KON35
  2
ACAD
 10
1686.0230332156291
 20
378.7440069140053
 30
0.0
  0
LINE
  5
30
  8
0
 10
4.6999999999999877
 20
28.249960199999968
 30
0.0
 11
4.6999999999999877
 21
-28.249960200000029
 31
0.0
  0
LINE
  5
31
  8
0
 10
68.699999999999989
 20
28.249960199999968
 30
0.0
 11
68.699999999999989
 21
-28.249960200000029
 31
0.0
  0
TEXT
  5
32
  8
0
 10
8.2336959217907975
 20
-22.12076952934882
 30
0.0
 40
3.2000000000000002
  1
SM 56.2.18JE50
  7
SIMPLEX
  0
LINE
  5
3A
  8
0
 10
-1.5
 20
19.050000000000061
 30
0.0
 11
-1.4999999999999849
 21
-19.049999999999951
 31
0.0
  0
LINE
  5
3B
  8
0
 10
-1.5
 20
3.1750000000000109
 30
0.0
 11
-20.499999999999979
 21
3.1750000000000962
 31
0.0
  0
LINE
  5
3C
  8
0
 10
-1.5
 20
-3.1749999999999541
 30
0.0
 11
-20.499999999999979
 21
-3.1749999999999541
 31
0.0
  0
LINE
  5
3D
  8
0
 10
0.0
 20
19.050000000000061
 30
0.0
 11
-1.5
 21
19.050000000000061
 31
0.0
  0
LINE
  5
3E
  8
0
 10
-0.0000000000000142
 20
-19.049999999999979
 30
0.0
 11
-1.5
 21
-19.049999999999979
 31
0.0
  0
LINE
  5
3F
  8
0
 10
-21.0
 20
2.6750000000000682
 30
0.0
 11
-21.000000000000011
 21
-2.6749999999999541
 31
0.0
  0
LINE
  5
40
  8
0
 10
-20.499999999999979
 20
3.1750000000000962
 30
0.0
 11
-20.499999999999979
 21
-3.1749999999999541
 31
0.0
  0
LINE
  5
41
  8
0
 10
-20.500000000000011
 20
-3.1749999999999541
 30
0.0
 11
-21.000000000000011
 21
-2.6749999999999541
 31
0.0
  0
LINE
  5
42
  8
0
 10
-21.0
 20
2.6750000000000682
 30
0.0
 11
-20.5
 21
3.1750000000000682
 31
0.0
  0
LINE
  5
43
  8
0
 10
111.0
 20
28.249960199999911
 30
0.0
 11
111.0
 21
-28.249960200000089
 31
0.0
  0
LINE
  5
44
  8
0
 10
114.0
 20
28.249960199999911
 30
0.0
 11
114.0
 21
-28.249960199999911
 31
0.0
  0
INSERT
  5
45
  8
KON35
  2
ACAD
 10
522.82707285807555
 20
413.69185239206303
 30
0.0
  0
INSERT
  5
46
  8
KON35
  2
ACAD
 10
912.81637957674172
 20
420.53580556778519
 30
0.0
  0
INSERT
  5
47
  8
KON35
  2
ACAD
 10
1599.070709544467
 20
533.64618814818584
 30
0.0
  0
INSERT
  5
6E
  8
KON35
  2
ACAD
 10
912.16701785571934
 20
414.38264189406112
 30
0.0
  0
INSERT
  5
6F
  8
KON35
  2
ACAD
 10
1113.024370730727
 20
478.27187965724369
 30
0.0
  0
INSERT
  5
70
  8
KON35
  2
ACAD
 10
1300.0779962041911
 20
420.53334647513282
 30
0.0
  0
INSERT
  5
71
  8
KON35
  2
ACAD
 10
1986.3323261719161
 20
533.64372905553341
 30
0.0
  0
INSERT
  5
72
  8
KON35
  2
ACAD
 10
1299.428634483168
 20
414.38018280140881
 30
0.0
  0
INSERT
  5
73
  8
KON35
  2
ACAD
 10
1299.428634483168
 20
414.38018280140881
 30
0.0
  0
INSERT
  5
74
  8
KON35
  2
ACAD
 10
1360.500568263212
 20
780.94836347895227
 30
0.0
  0
INSERT
  5
75
  8
KON35
  2
ACAD
 10
1241.5095047972579
 20
696.76600267105789
 30
0.0
  0
INSERT
  5
76
  8
KON35
  2
ACAD
 10
1692.930045353
 20
417.13372439587459
 30
0.0
  0
TEXT
  5
77
  8
TEXT35
 10
1329.627191253255
 20
270.53186512989572
 30
0.0
 40
3.5
  1

  7
TEXT35
  0
INSERT
  5
7A
  8
KON35
  2
ACAD
 10
1740.2609349375091
 20
613.22936655822059
 30
0.0
  0
INSERT
  5
7B
  8
KON35
  2
ACAD
 10
1972.4266957587979
 20
617.29567051613037
 30
0.0
  0
INSERT
  5
7C
  8
KON35
  2
ACAD
 10
1949.7096811695701
 20
616.24783213446221
 30
0.0
  0
INSERT
  5
7D
  8
KON35
  2
ACAD
 10
2355.1378771877671
 20
616.48759033137856
 30
0.0
  0
INSERT
  5
7E
  8
KON35
  2
ACAD
 10
2355.1378771877671
 20
616.48759033137856
 30
0.0
  0
INSERT
  5
7F
  8
KON35
  2
ACAD
 10
2764.7471325791512
 20
617.16823033551805
 30
0.0
  0
INSERT
  5
80
  8
KON35
  2
ACAD
 10
2996.912893400442
 20
621.23453429342771
 30
0.0
  0
INSERT
  5
81
  8
KON35
  2
ACAD
 10
2282.8232362264648
 20
431.28259576526
 30
0.0
  0
INSERT
  5
82
  8
KON35
  2
ACAD
 10
1298.0543677782921
 20
415.07585246798652
 30
0.0
  0
INSERT
  5
83
  8
KON35
  2
ACAD
 10
1298.0543677782921
 20
415.07585246798652
 30
0.0
  0
INSERT
  5
84
  8
KON35
  2
ACAD
 10
1359.1263015583361
 20
781.64403314552987
 30
0.0
  0
INSERT
  5
85
  8
KON35
  2
ACAD
 10
1240.135238092382
 20
697.4616723376356
 30
0.0
  0
INSERT
  5
86
  8
KON35
  2
ACAD
 10
1691.555778648124
 20
417.82939406245242
 30
0.0
  0
TEXT
  5
87
  8
TEXT35
 10
1328.252924548379
 20
271.22753479647338
 30
0.0
 40
3.5
  1

  7
TEXT35
  0
INSERT
  5
88
  8
KON35
  2
ACAD
 10
1738.886668232632
 20
613.9250362247983
 30
0.0
  0
INSERT
  5
89
  8
KON35
  2
ACAD
 10
1971.0524290539231
 20
617.99134018270809
 30
0.0
  0
INSERT
  5
8A
  8
KON35
  2
ACAD
 10
1948.3354144646939
 20
616.94350180104004
 30
0.0
  0
INSERT
  5
8B
  8
KON35
  2
ACAD
 10
2353.7636104828912
 20
617.18325999795638
 30
0.0
  0
INSERT
  5
8C
  8
KON35
  2
ACAD
 10
2353.7636104828912
 20
617.18325999795638
 30
0.0
  0
INSERT
  5
8D
  8
KON35
  2
ACAD
 10
2763.3728658742748
 20
617.86390000209565
 30
0.0
  0
INSERT
  5
8E
  8
KON35
  2
ACAD
 10
2995.5386266955661
 20
621.93020396000554
 30
0.0
  0
INSERT
  5
8F
  8
KON35
  2
ACAD
 10
2281.4489695215898
 20
431.97826543183788
 30
0.0
  0
INSERT
  5
90
  8
KON35
  2
ACAD
 10
913.55257010251569
 20
413.68939329941071
 30
0.0
  0
INSERT
  5
91
  8
KON35
  2
ACAD
 10
1099.909110944506
 20
453.89535269648701
 30
0.0
  0
INSERT
  5
92
  8
VERDECKT
  2
CAD
 10
1201.5187614239351
 20
183.72274944991
 30
0.0
  0
INSERT
  5
93
  8
VERDECKT
  2
CAD
 10
1515.187920358462
 20
266.88964912510812
 30
0.0
  0
INSERT
  5
94
  8
KON35
  2
ACAD
 10
2121.3673706585678
 20
403.7048829591684
 30
0.0
  0
INSERT
  5
95
  8
KON35
  2
ACAD
 10
2109.8496253467629
 20
607.43966194165375
 30
0.0
  0
LINE
  5
B0
  8
0
 10
105.9999999999998
 20
-28.249960199999911
 30
0.0
 11
114.0
 21
-28.249960199999911
 31
0.0
  0
LINE
  5
B1
  8
0
 10
111.0
 20
28.249960200000089
 30
0.0
 11
111.0
 21
-28.249960199999911
 31
0.0
  0
LINE
  5
B2
  8
0
 10
111.0
 20
28.249960199999968
 30
0.0
 11
111.0
 21
-28.249960200000029
 31
0.0
  0
POLYLINE
  5
248
  8
0
 66
     1
 10
0.0
 20
0.0
 30
0.0
  0
VERTEX
  5
2C1
  8
0
 10
105.9999999999999
 20
-27.049303786624758
 30
0.0
 42
0.2001681619167957
  0
VERTEX
  5
2C2
  8
0
 10
105.52929248757469
 20
-25.920633941582139
 30
0.0
 42
0.0981313231116659
  0
VERTEX
  5
2C3
  8
0
 10
103.5104076400854
 20
-24.583649575065301
 30
0.0
 42
0.0553010999546279
  0
VERTEX
  5
2C4
  8
0
 10
100.9632204425765
 20
-23.85448898227423
 30
0.0
 42
0.0421037198092917
  0
VERTEX
  5
2C5
  8
0
 10
97.499999999999943
 20
-23.562342160515019
 30
0.0
 42
0.0421037198092914
  0
VERTEX
  5
2C6
  8
0
 10
94.036779557423358
 20
-23.85448898227423
 30
0.0
 42
0.0553010999546256
  0
VERTEX
  5
2C7
  8
0
 10
91.489592359914411
 20
-24.583649575065301
 30
0.0
 42
0.0981313231116634
  0
VERTEX
  5
2C8
  8
0
 10
89.470707512425108
 20
-25.920633941582139
 30
0.0
 42
0.2001681619167846
  0
VERTEX
  5
2C9
  8
0
 10
89.000000000000185
 20
-27.049303786624758
 30
0.0
 42
0.2001681619167846
  0
SEQEND
  5
2CA
  8
0
  0
LINE
  5
249
  8
0
 10
105.9999999999999
 20
-27.049303786624758
 30
0.0
 11
105.9999999999999
 21
-35.905893199469233
 31
0.0
  0
LINE
  5
24A
  8
0
 10
88.999999999999943
 20
-36.023607713848492
 30
0.0
 11
88.999999999999943
 21
-27.049303786624758
 31
0.0
  0
ARC
  5
24B
  8
0
 10
97.500000000010942
 20
-51.479542112092403
 30
0.0
 40
17.188487544009991
 50
68.568741873294513
 51
111.4312581267842
  0
ARC
  5
24C
  8
0
 10
97.499999999999957
 20
-57.92616313220185
 30
0.0
 40
24.809724340101688
 50
81.936601319804524
 51
98.06339868019549
  0
LINE
  5
24D
  8
0
 10
97.499999999999943
 20
-35.465670344064669
 30
0.0
 11
102.5614571518078
 21
-36.030233187336187
 31
0.0
  0
ARC
  5
24E
  8
0
 10
94.846076590911252
 20
-42.394111278932719
 30
0.0
 40
9.0700895968580912
 50
95.225755479127585
 51
126.7091736286766
  0
ARC
  5
24F
  8
0
 10
91.454926678106304
 20
-35.905893199469361
 30
0.0
 40
0.4870044777930645
 50
118.8967634450489
 51
179.9999999999857
  0
ARC
  5
250
  8
0
 10
90.168204302372445
 20
-36.023610010368309
 30
0.0
 40
1.168204302372521
 50
129.54681682975081
 51
230.4531831702491
  0
LINE
  5
251
  8
0
 10
90.967922200313225
 20
-36.841316869878881
 30
0.0
 11
90.967922200313225
 21
-35.905893199469233
 31
0.0
  0
LINE
  5
252
  8
0
 10
97.499999999999943
 20
-35.465670344064669
 30
0.0
 11
92.438542848192071
 21
-36.030233187336187
 31
0.0
  0
ARC
  5
253
  8
0
 10
100.15392340908861
 20
-42.394111278932719
 30
0.0
 40
9.0700895968580912
 50
53.290826371323327
 51
84.774244520872386
  0
LINE
  5
254
  8
0
 10
104.03207779968849
 20
-36.841316869869907
 30
0.0
 11
104.0320777996872
 21
-35.905893199460259
 31
0.0
  0
ARC
  5
255
  8
0
 10
103.54507332189409
 20
-35.90589319946104
 30
0.0
 40
0.4870044777930645
 50
0.0000000000930249
 51
61.10323655502922
  0
ARC
  5
256
  8
0
 10
104.8317956976274
 20
-36.023610010368309
 30
0.0
 40
1.168204302372521
 50
309.54681682975092
 51
50.453183170249112
  0
ARC
  5
257
  8
0
 10
100.5207598698738
 20
-39.724324211728707
 30
0.0
 40
0.2316088496705138
 50
298.8179893524092
 51
61.182010647528408
  0
LINE
  5
258
  8
0
 10
97.500000000001535
 20
-41.578185707987757
 30
0.0
 11
102.56145715180961
 21
-41.013622864716183
 31
0.0
  0
LINE
  5
259
  8
0
 10
97.500000000001535
 20
-37.782794137561318
 30
0.0
 11
102.56145715180961
 21
-38.347356980832778
 31
0.0
  0
LINE
  5
25A
  8
0
 10
92.438542848190252
 20
-38.347356980832778
 30
0.0
 11
90.021365837993415
 21
-39.6804899227755
 31
0.0
  0
LINE
  5
25B
  8
0
 10
92.438542848190252
 20
-41.013622864716183
 30
0.0
 11
90.021365837993415
 21
-39.680489922773567
 31
0.0
  0
LINE
  5
25C
  8
0
 10
92.438542848192071
 20
-36.030233187336187
 30
0.0
 11
90.021365837995006
 21
-37.363366129278852
 31
0.0
  0
LINE
  5
25D
  8
0
 10
90.021365837995234
 20
-39.680489922774477
 30
0.0
 11
90.021365837995006
 21
-37.363366129278852
 31
0.0
  0
ARC
  5
25E
  8
0
 10
91.178657496519676
 20
-35.164046580160353
 30
0.0
 40
2.485222417014187
 50
225.0996432156457
 51
242.2464566520658
  0
LINE
  5
25F
  8
0
 10
97.499999999999943
 20
-35.465670344064669
 30
0.0
 11
97.499999999999943
 21
-37.818871360781543
 31
0.0
  0
LINE
  5
260
  8
0
 10
92.438542848192071
 20
-36.030233187336187
 30
0.0
 11
92.438542848192071
 21
-38.347356980832608
 31
0.0
  0
ARC
  5
261
  8
0
 10
97.588696040788733
 20
-31.244537101329801
 30
0.0
 40
9.2007413543861336
 50
250.68199593518401
 51
289.31800406481682
  0
ARC
  5
262
  8
0
 10
97.588696040788875
 20
-48.20411132212751
 30
0.0
 40
9.2007413543859684
 50
70.6819959351823
 51
109.31800406481671
  0
LINE
  5
263
  8
0
 10
97.499999999998124
 20
-41.578185707987757
 30
0.0
 11
92.438542848190252
 21
-41.013622864716183
 31
0.0
  0
LINE
  5
264
  8
0
 10
97.499999999998124
 20
-37.782794137561318
 30
0.0
 11
92.438542848190252
 21
-38.347356980832778
 31
0.0
  0
ARC
  5
265
  8
0
 10
94.656632211704036
 20
-39.724324211728771
 30
0.0
 40
0.2316088496706184
 50
118.81798935249
 51
241.18201064751909
  0
LINE
  5
266
  8
0
 10
104.9786341620064
 20
-39.680489922773567
 30
0.0
 11
104.9786341620046
 21
-37.363366129278852
 31
0.0
  0
LINE
  5
267
  8
0
 10
102.5614571518078
 20
-36.030233187336187
 30
0.0
 11
102.5614571518078
 21
-38.347356980832608
 31
0.0
  0
LINE
  5
268
  8
0
 10
102.56145715180961
 20
-38.347356980832778
 30
0.0
 11
104.9786341620064
 21
-39.6804899227755
 31
0.0
  0
LINE
  5
269
  8
0
 10
102.56145715180961
 20
-41.013622864716183
 30
0.0
 11
104.9786341620064
 21
-39.680489922773567
 31
0.0
  0
LINE
  5
26A
  8
0
 10
102.5614571518078
 20
-36.030233187336187
 30
0.0
 11
104.9786341620046
 21
-37.363366129278852
 31
0.0
  0
ARC
  5
26B
  8
0
 10
103.8213425034802
 20
-35.164046580160353
 30
0.0
 40
2.485222417014187
 50
297.75354334793423
 51
314.90035678435407
  0
ENDSEC
  0
EOF
