  0
SECTION
  2
HEADER
  9
$ACADVER
  1
AC1009
  9
$INSBASE
 10
0.0
 20
0.0
 30
0.0
  9
$EXTMIN
 10
-100.17272865419829
 20
-100.16271917494331
 30
-0.0015258207003583
  9
$EXTMAX
 10
100.14770567201511
 20
100.1452030874149
 30
0.0000000349246037
  9
$LIMMIN
 10
0.0
 20
0.0
  9
$LIMMAX
 10
410.0
 20
287.0
  9
$ORTHOMODE
 70
     0
  9
$REGENMODE
 70
     1
  9
$FILLMODE
 70
     1
  9
$QTEXTMODE
 70
     0
  9
$MIRRTEXT
 70
     1
  9
$DRAGMODE
 70
     2
  9
$LTSCALE
 40
50.0
  9
$OSMODE
 70
    39
  9
$ATTMODE
 70
     1
  9
$TEXTSIZE
 40
8.0
  9
$TRACEWID
 40
1.0
  9
$TEXTSTYLE
  7
SIMPLEX
  9
$CLAYER
  8
SCHRAFF
  9
$CELTYPE
  6
BYLAYER
  9
$CECOLOR
 62
   256
  9
$DIMSCALE
 40
1.0
  9
$DIMASZ
 40
7.0
  9
$DIMEXO
 40
0.1
  9
$DIMDLI
 40
7.0
  9
$DIMRND
 40
0.0
  9
$DIMDLE
 40
0.0
  9
$DIMEXE
 40
1.8
  9
$DIMTP
 40
0.1
  9
$DIMTM
 40
0.1
  9
$DIMTXT
 40
3.5
  9
$DIMCEN
 40
1.5
  9
$DIMTSZ
 40
0.0
  9
$DIMTOL
 70
     0
  9
$DIMLIM
 70
     0
  9
$DIMTIH
 70
     0
  9
$DIMTOH
 70
     0
  9
$DIMSE1
 70
     0
  9
$DIMSE2
 70
     0
  9
$DIMTAD
 70
     1
  9
$DIMZIN
 70
     0
  9
$DIMBLK
  1

  9
$DIMASO
 70
     0
  9
$DIMSHO
 70
     1
  9
$DIMPOST
  1

  9
$DIMAPOST
  1

  9
$DIMALT
 70
     0
  9
$DIMALTD
 70
     2
  9
$DIMALTF
 40
25.399999999999999
  9
$DIMLFAC
 40
1.0
  9
$DIMTOFL
 70
     0
  9
$DIMTVP
 40
0.0
  9
$DIMTIX
 70
     0
  9
$DIMSOXD
 70
     0
  9
$DIMSAH
 70
     0
  9
$DIMBLK1
  1

  9
$DIMBLK2
  1

  9
$DIMSTYLE
  2
STANDARD
  9
$DIMCLRD
 70
     0
  9
$DIMCLRE
 70
     0
  9
$DIMCLRT
 70
     0
  9
$DIMTFAC
 40
1.0
  9
$DIMGAP
 40
0.09
  9
$LUNITS
 70
     2
  9
$LUPREC
 70
     2
  9
$SKETCHINC
 40
1.0
  9
$FILLETRAD
 40
0.0
  9
$AUNITS
 70
     0
  9
$AUPREC
 70
     0
  9
$MENU
  1
acad
  9
$ELEVATION
 40
0.0
  9
$PELEVATION
 40
0.0
  9
$THICKNESS
 40
0.0
  9
$LIMCHECK
 70
     0
  9
$BLIPMODE
 70
     0
  9
$CHAMFERA
 40
1.0
  9
$CHAMFERB
 40
1.0
  9
$SKPOLY
 70
     0
  9
$TDCREATE
 40
2448379.5757552078
  9
$TDUPDATE
 40
2452657.6513681361
  9
$TDINDWG
 40
0.0042076736
  9
$TDUSRTIMER
 40
0.0042076736
  9
$USRTIMER
 70
     1
  9
$ANGBASE
 50
0.0
  9
$ANGDIR
 70
     0
  9
$PDMODE
 70
     0
  9
$PDSIZE
 40
0.0
  9
$PLINEWID
 40
0.0
  9
$COORDS
 70
     0
  9
$SPLFRAME
 70
     0
  9
$SPLINETYPE
 70
     6
  9
$SPLINESEGS
 70
     8
  9
$ATTDIA
 70
     0
  9
$ATTREQ
 70
     1
  9
$HANDLING
 70
  4097
  9
$HANDSEED
  5
7D
  9
$SURFTAB1
 70
     6
  9
$SURFTAB2
 70
     6
  9
$SURFTYPE
 70
     6
  9
$SURFU
 70
     6
  9
$SURFV
 70
     6
  9
$UCSNAME
  2

  9
$UCSORG
 10
0.0
 20
0.0
 30
0.0
  9
$UCSXDIR
 10
1.0
 20
0.0
 30
0.0
  9
$UCSYDIR
 10
0.0
 20
1.0
 30
0.0
  9
$PUCSNAME
  2

  9
$PUCSORG
 10
0.0
 20
0.0
 30
0.0
  9
$PUCSXDIR
 10
1.0
 20
0.0
 30
0.0
  9
$PUCSYDIR
 10
0.0
 20
1.0
 30
0.0
  9
$USERI1
 70
     0
  9
$USERI2
 70
     0
  9
$USERI3
 70
     0
  9
$USERI4
 70
     0
  9
$USERI5
 70
     0
  9
$USERR1
 40
0.0
  9
$USERR2
 40
0.0
  9
$USERR3
 40
0.0
  9
$USERR4
 40
0.0
  9
$USERR5
 40
0.0
  9
$WORLDVIEW
 70
     1
  9
$SHADEDGE
 70
     3
  9
$SHADEDIF
 70
    70
  9
$TILEMODE
 70
     1
  9
$MAXACTVP
 70
    64
  9
$PLIMCHECK
 70
     0
  9
$PEXTMIN
 10
1.0000000000000000E+020
 20
1.0000000000000000E+020
 30
1.0000000000000000E+020
  9
$PEXTMAX
 10
-1.0000000000000000E+020
 20
-1.0000000000000000E+020
 30
-1.0000000000000000E+020
  9
$PLIMMIN
 10
0.0
 20
0.0
  9
$PLIMMAX
 10
12.0
 20
9.0
  9
$UNITMODE
 70
     0
  9
$VISRETAIN
 70
     1
  9
$PLINEGEN
 70
     0
  9
$PSLTSCALE
 70
     0
  0
ENDSEC
  0
SECTION
  2
TABLES
  0
TABLE
  2
VPORT
 70
     3
  0
VPORT
  2
*ACTIVE
 70
     0
 10
0.0
 20
0.0
 11
1.0
 21
1.0
 12
-0.0125114910915585
 22
-0.0087580437641748
 13
0.0
 23
0.0
 14
0.5
 24
0.5
 15
10.0
 25
10.0
 16
0.0
 26
0.0
 36
1.0
 17
0.0
 27
0.0
 37
0.0
 40
203.79153830170361
 41
2.0726744186046511
 42
50.0
 43
0.0
 44
0.0
 50
0.0
 51
0.0
 71
     0
 72
   100
 73
     1
 74
     0
 75
     0
 76
     0
 77
     0
 78
     0
  0
ENDTAB
  0
TABLE
  2
LTYPE
 70
     1
  0
LTYPE
  2
CONTINUOUS
 70
     0
  3
Solid line
 72
    65
 73
     0
 40
0.0
  0
ENDTAB
  0
TABLE
  2
LAYER
 70
     2
  0
LAYER
  2
0
 70
     0
 62
     7
  6
CONTINUOUS
  0
LAYER
  2
SCHRAFF
 70
     0
 62
     5
  6
CONTINUOUS
  0
ENDTAB
  0
TABLE
  2
STYLE
 70
     2
  0
STYLE
  2
TXT
 70
     0
 40
0.0
 41
1.0
 50
0.0
 71
     0
 42
2.5
  3
8txt
  4

  0
STYLE
  2
SIMPLEX
 70
     0
 40
0.0
 41
0.8
 50
0.0
 71
     0
 42
8.0
  3
8simplex
  4

  0
ENDTAB
  0
TABLE
  2
VIEW
 70
     0
  0
ENDTAB
  0
TABLE
  2
UCS
 70
     0
  0
ENDTAB
  0
TABLE
  2
APPID
 70
     1
  0
APPID
  2
ACAD
 70
     0
  0
ENDTAB
  0
TABLE
  2
DIMSTYLE
 70
     1
  0
DIMSTYLE
  2
STANDARD
 70
     0
  3

  4

  5

  6

  7

 40
1.0
 41
0.18
 42
0.0625
 43
0.38
 44
0.18
 45
0.0
 46
0.0
 47
0.0
 48
0.0
140
0.18
141
0.09
142
0.0
143
25.399999999999999
144
1.0
145
0.0
146
1.0
147
0.09
 71
     0
 72
     0
 73
     1
 74
     1
 75
     0
 76
     0
 77
     0
 78
     0
170
     0
171
     2
172
     0
173
     0
174
     0
175
     0
176
     0
177
     0
178
     0
  0
ENDTAB
  0
ENDSEC
  0
SECTION
  2
BLOCKS
  0
BLOCK
  8
0
  2
$MODEL_SPACE
 70
     0
 10
0.0
 20
0.0
 30
0.0
  3
$MODEL_SPACE
  1

  0
ENDBLK
  5
9
  8
0
  0
BLOCK
 67
     1
  8
0
  2
$PAPER_SPACE
 70
     0
 10
0.0
 20
0.0
 30
0.0
  3
$PAPER_SPACE
  1

  0
ENDBLK
  5
E
 67
     1
  8
0
  0
ENDSEC
  0
SECTION
  2
ENTITIES
  0
LINE
  5
26
  8
0
 10
-96.0
 20
76.0
 30
0.0
 11
-95.999999999999943
 21
-76.000000000000028
 31
0.0
  0
LINE
  5
27
  8
0
 10
96.000000000000057
 20
76.000000000000028
 30
0.0
 11
96.000000000000057
 21
-76.000000000000028
 31
0.0
  0
CIRCLE
  5
28
  8
0
 10
0.0
 20
0.0
 30
0.0
 40
90.0
  0
LINE
  5
29
  8
0
 10
-75.999999999999943
 20
-96.000000000000028
 30
0.0
 11
76.000000000000057
 21
-96.000000000000028
 31
0.0
  0
ARC
  5
2A
  8
0
 10
-75.999999999999943
 20
-76.000000000000028
 30
0.0
 40
20.0
 50
180.0
 51
270.0
  0
CIRCLE
  5
2B
  8
0
 10
-76.000000000000057
 20
-75.999999999999957
 30
0.0
 40
7.5
  0
LINE
  5
2C
  8
0
 10
6.5164273034030771
 20
-96.14410498624899
 30
0.0
 11
6.516427303403133
 21
-98.402570847781888
 31
0.0
  0
LINE
  5
2D
  8
0
 10
12.100000000000071
 20
-96.14410498624899
 30
0.0
 11
12.100000000000071
 21
-98.402570847782599
 31
0.0
  0
LINE
  5
2E
  8
0
 10
-12.267145393193911
 20
-96.14410498624899
 30
0.0
 11
-12.267145393193911
 21
-98.402570847782243
 31
0.0
  0
LINE
  5
2F
  8
0
 10
-6.6835726965969107
 20
-96.14410498624899
 30
0.0
 11
-6.6835726965969684
 21
-98.402570847781888
 31
0.0
  0
ARC
  5
30
  8
0
 10
-0.0835726965969457
 20
-78.01187741313224
 30
0.0
 40
21.432227573116752
 50
252.06442176845169
 51
287.93557823154828
  0
LINE
  5
31
  8
0
 10
-9.4753590448954128
 20
-99.444104986248988
 30
0.0
 11
9.3082127503303127
 21
-99.444104986248973
 31
0.0
  0
ARC
  5
32
  8
0
 10
-9.4753590448954128
 20
-95.181707793389805
 30
0.0
 40
4.2623971928591811
 50
229.0818410078268
 51
310.91815899217318
  0
ARC
  5
33
  8
0
 10
9.3082136517015783
 20
-95.181707793389805
 30
0.0
 40
4.2623971928591811
 50
229.0818410078268
 51
310.91815899217312
  0
CIRCLE
  5
34
  8
0
 10
0.0
 20
0.0
 30
0.0
 40
19.0
  0
CIRCLE
  5
35
  8
0
 10
0.0
 20
0.0
 30
0.0
 40
12.0
  0
LINE
  5
36
  8
0
 10
14.999999999999311
 20
-3.9999999999999849
 30
0.0
 11
14.99999999999943
 21
4.0
 31
0.0
  0
LINE
  5
37
  8
0
 10
14.999999999999311
 20
-3.9999999999999849
 30
0.0
 11
11.313708498984109
 21
-3.9999999999999849
 31
0.0
  0
LINE
  5
38
  8
0
 10
14.99999999999943
 20
4.0
 30
0.0
 11
11.313708498984109
 21
4.0
 31
0.0
  0
ARC
  5
39
  8
0
 10
76.000000000000057
 20
-76.000000000000028
 30
0.0
 40
20.0
 50
270.0
 51
0.0
  0
CIRCLE
  5
3A
  8
0
 10
75.999999999999943
 20
-76.000000000000142
 30
0.0
 40
7.5
  0
LINE
  5
3B
  8
0
 10
-76.0
 20
96.0
 30
0.0
 11
76.000000000000057
 21
96.000000000000028
 31
0.0
  0
ARC
  5
3C
  8
0
 10
-76.0
 20
76.0
 30
0.0
 40
20.0
 50
90.000000000000028
 51
180.0
  0
CIRCLE
  5
3D
  8
0
 10
-75.999999999999943
 20
76.000000000000057
 30
0.0
 40
7.5
  0
ARC
  5
3E
  8
0
 10
76.000000000000057
 20
76.000000000000028
 30
0.0
 40
20.0
 50
0.0
 51
90.0
  0
CIRCLE
  5
3F
  8
0
 10
76.000000000000057
 20
75.999999999999943
 30
0.0
 40
7.5
  0
ENDSEC
  0
EOF
