  0
SECTION
  2
HEADER
  9
$ACADVER
  1
AC1009
  9
$INSBASE
 10
0.0
 20
0.0
 30
0.0
  9
$EXTMIN
 10
-64.672844672964288
 20
-78.768433777836663
 30
0.0
  9
$EXTMAX
 10
59.153700222651651
 20
64.672844672964231
 30
0.0
  9
$LIMMIN
 10
0.0
 20
0.0
  9
$LIMMAX
 10
410.0
 20
287.0
  9
$ORTHOMODE
 70
     1
  9
$REGENMODE
 70
     1
  9
$FILLMODE
 70
     1
  9
$QTEXTMODE
 70
     0
  9
$MIRRTEXT
 70
     0
  9
$DRAGMODE
 70
     2
  9
$LTSCALE
 40
25.0
  9
$OSMODE
 70
    39
  9
$ATTMODE
 70
     1
  9
$TEXTSIZE
 40
8.0
  9
$TRACEWID
 40
1.0
  9
$TEXTSTYLE
  7
SIMPLEX
  9
$CLAYER
  8
MITTELLI
  9
$CELTYPE
  6
BYLAYER
  9
$CECOLOR
 62
   256
  9
$DIMSCALE
 40
1.0
  9
$DIMASZ
 40
7.0
  9
$DIMEXO
 40
0.1
  9
$DIMDLI
 40
7.0
  9
$DIMRND
 40
0.0
  9
$DIMDLE
 40
0.0
  9
$DIMEXE
 40
1.8
  9
$DIMTP
 40
1.0
  9
$DIMTM
 40
1.0
  9
$DIMTXT
 40
3.5
  9
$DIMCEN
 40
1.5
  9
$DIMTSZ
 40
0.0
  9
$DIMTOL
 70
     0
  9
$DIMLIM
 70
     0
  9
$DIMTIH
 70
     0
  9
$DIMTOH
 70
     0
  9
$DIMSE1
 70
     0
  9
$DIMSE2
 70
     0
  9
$DIMTAD
 70
     1
  9
$DIMZIN
 70
     0
  9
$DIMBLK
  1

  9
$DIMASO
 70
     0
  9
$DIMSHO
 70
     1
  9
$DIMPOST
  1

  9
$DIMAPOST
  1

  9
$DIMALT
 70
     0
  9
$DIMALTD
 70
     2
  9
$DIMALTF
 40
25.399999999999999
  9
$DIMLFAC
 40
1.0
  9
$DIMTOFL
 70
     0
  9
$DIMTVP
 40
0.0
  9
$DIMTIX
 70
     0
  9
$DIMSOXD
 70
     0
  9
$DIMSAH
 70
     0
  9
$DIMBLK1
  1

  9
$DIMBLK2
  1

  9
$DIMSTYLE
  2
STANDARD
  9
$DIMCLRD
 70
     0
  9
$DIMCLRE
 70
     0
  9
$DIMCLRT
 70
     0
  9
$DIMTFAC
 40
1.0
  9
$DIMGAP
 40
0.09
  9
$LUNITS
 70
     2
  9
$LUPREC
 70
     4
  9
$SKETCHINC
 40
0.1
  9
$FILLETRAD
 40
0.0
  9
$AUNITS
 70
     0
  9
$AUPREC
 70
     0
  9
$MENU
  1
c:/acad/acad
  9
$ELEVATION
 40
0.0
  9
$PELEVATION
 40
0.0
  9
$THICKNESS
 40
0.0
  9
$LIMCHECK
 70
     0
  9
$BLIPMODE
 70
     0
  9
$CHAMFERA
 40
2.0
  9
$CHAMFERB
 40
2.0
  9
$SKPOLY
 70
     0
  9
$TDCREATE
 40
2448364.5747825229
  9
$TDUPDATE
 40
2452655.6939090621
  9
$TDINDWG
 40
0.1581636458
  9
$TDUSRTIMER
 40
0.1581623727
  9
$USRTIMER
 70
     1
  9
$ANGBASE
 50
0.0
  9
$ANGDIR
 70
     0
  9
$PDMODE
 70
     0
  9
$PDSIZE
 40
0.0
  9
$PLINEWID
 40
0.0
  9
$COORDS
 70
     0
  9
$SPLFRAME
 70
     0
  9
$SPLINETYPE
 70
     6
  9
$SPLINESEGS
 70
     8
  9
$ATTDIA
 70
     0
  9
$ATTREQ
 70
     1
  9
$HANDLING
 70
  4097
  9
$HANDSEED
  5
162
  9
$SURFTAB1
 70
     6
  9
$SURFTAB2
 70
     6
  9
$SURFTYPE
 70
     6
  9
$SURFU
 70
     6
  9
$SURFV
 70
     6
  9
$UCSNAME
  2

  9
$UCSORG
 10
0.0
 20
0.0
 30
0.0
  9
$UCSXDIR
 10
1.0
 20
0.0
 30
0.0
  9
$UCSYDIR
 10
0.0
 20
1.0
 30
0.0
  9
$PUCSNAME
  2

  9
$PUCSORG
 10
0.0
 20
0.0
 30
0.0
  9
$PUCSXDIR
 10
1.0
 20
0.0
 30
0.0
  9
$PUCSYDIR
 10
0.0
 20
1.0
 30
0.0
  9
$USERI1
 70
     0
  9
$USERI2
 70
     0
  9
$USERI3
 70
     0
  9
$USERI4
 70
     0
  9
$USERI5
 70
     0
  9
$USERR1
 40
0.0
  9
$USERR2
 40
0.0
  9
$USERR3
 40
0.0
  9
$USERR4
 40
0.0
  9
$USERR5
 40
0.0
  9
$WORLDVIEW
 70
     1
  9
$SHADEDGE
 70
     3
  9
$SHADEDIF
 70
    70
  9
$TILEMODE
 70
     1
  9
$MAXACTVP
 70
    64
  9
$PLIMCHECK
 70
     0
  9
$PEXTMIN
 10
1.0000000000000000E+020
 20
1.0000000000000000E+020
 30
1.0000000000000000E+020
  9
$PEXTMAX
 10
-1.0000000000000000E+020
 20
-1.0000000000000000E+020
 30
-1.0000000000000000E+020
  9
$PLIMMIN
 10
0.0
 20
0.0
  9
$PLIMMAX
 10
12.0
 20
9.0
  9
$UNITMODE
 70
     0
  9
$VISRETAIN
 70
     1
  9
$PLINEGEN
 70
     0
  9
$PSLTSCALE
 70
     0
  0
ENDSEC
  0
SECTION
  2
TABLES
  0
TABLE
  2
VPORT
 70
     4
  0
VPORT
  2
*ACTIVE
 70
     0
 10
0.0
 20
0.0
 11
1.0
 21
1.0
 12
-0.1732569056987643
 22
-7.0484385329164629
 13
0.0
 23
0.0
 14
0.5
 24
0.5
 15
10.0
 25
10.0
 16
0.0
 26
0.0
 36
1.0
 17
0.0
 27
0.0
 37
0.0
 40
145.89508756936209
 41
2.0726744186046511
 42
50.0
 43
0.0
 44
0.0
 50
0.0
 51
0.0
 71
     0
 72
   100
 73
     1
 74
     0
 75
     0
 76
     0
 77
     0
 78
     0
  0
ENDTAB
  0
TABLE
  2
LTYPE
 70
     2
  0
LTYPE
  2
CONTINUOUS
 70
     0
  3
Solid line
 72
    65
 73
     0
 40
0.0
  0
LTYPE
  2
MITTKLEIN
 70
     0
  3
__ . __ . ___ 
 72
    65
 73
     4
 40
0.45
 49
0.25
 49
-0.1
 49
0.0
 49
-0.1
  0
ENDTAB
  0
TABLE
  2
LAYER
 70
     2
  0
LAYER
  2
0
 70
     0
 62
     7
  6
CONTINUOUS
  0
LAYER
  2
MITTELLI
 70
     0
 62
     1
  6
MITTKLEIN
  0
ENDTAB
  0
TABLE
  2
STYLE
 70
     3
  0
STYLE
  2
STANDARD
 70
     0
 40
0.0
 41
1.0
 50
0.0
 71
     0
 42
0.2
  3
txt
  4

  0
STYLE
  2
SIMPLEX
 70
     0
 40
0.0
 41
1.0
 50
0.0
 71
     0
 42
8.0
  3
8simplex
  4

  0
STYLE
  2
TXT
 70
     0
 40
0.0
 41
1.0
 50
0.0
 71
     0
 42
2.5
  3
8txt
  4

  0
ENDTAB
  0
TABLE
  2
VIEW
 70
     0
  0
ENDTAB
  0
TABLE
  2
UCS
 70
     0
  0
ENDTAB
  0
TABLE
  2
APPID
 70
     1
  0
APPID
  2
ACAD
 70
     0
  0
ENDTAB
  0
TABLE
  2
DIMSTYLE
 70
     1
  0
DIMSTYLE
  2
STANDARD
 70
     0
  3

  4

  5

  6

  7

 40
1.0
 41
0.18
 42
0.0625
 43
0.38
 44
0.18
 45
0.0
 46
0.0
 47
0.0
 48
0.0
140
0.18
141
0.09
142
0.0
143
25.399999999999999
144
1.0
145
0.0
146
1.0
147
0.09
 71
     0
 72
     0
 73
     1
 74
     1
 75
     0
 76
     0
 77
     0
 78
     0
170
     0
171
     2
172
     0
173
     0
174
     0
175
     0
176
     0
177
     0
178
     0
  0
ENDTAB
  0
ENDSEC
  0
SECTION
  2
BLOCKS
  0
BLOCK
  8
0
  2
$MODEL_SPACE
 70
     0
 10
0.0
 20
0.0
 30
0.0
  3
$MODEL_SPACE
  1

  0
ENDBLK
  5
90
  8
0
  0
BLOCK
 67
     1
  8
0
  2
$PAPER_SPACE
 70
     0
 10
0.0
 20
0.0
 30
0.0
  3
$PAPER_SPACE
  1

  0
ENDBLK
  5
8C
 67
     1
  8
0
  0
ENDSEC
  0
SECTION
  2
ENTITIES
  0
LINE
  5
A0
  8
0
 10
53.999999999999879
 20
50.596442562694037
 30
0.0
 11
53.999999999999879
 21
-50.596442562694101
 31
0.0
  0
LINE
  5
A1
  8
0
 10
-54.000000000000107
 20
-50.596442562694037
 30
0.0
 11
-54.000000000000107
 21
50.596442562693987
 31
0.0
  0
LINE
  5
A2
  8
MITTELLI
 10
-0.0000000000001137
 20
0.0
 30
0.0
 11
-0.0000000000001137
 21
-78.768433777836663
 31
0.0
  0
LINE
  5
A3
  8
0
 10
13.49999999999965
 20
-55.000000000000099
 30
0.0
 11
-13.500000000000339
 21
-55.000000000000099
 31
0.0
  0
LINE
  5
A4
  8
0
 10
-8.6139627680871609
 20
-71.767368169317379
 30
0.0
 11
8.4620115912090341
 21
-71.767368169317379
 31
0.0
  0
ARC
  5
A5
  8
0
 10
-0.0759751787248888
 20
-52.283524921029418
 30
0.0
 40
19.48384324828795
 50
252.06442176845161
 51
287.93557823154822
  0
LINE
  5
A6
  8
0
 10
-0.0759751787248888
 20
-68.767368169317365
 30
0.0
 11
-6.075975178724887
 21
-68.767368169317365
 31
0.0
  0
LINE
  5
A7
  8
0
 10
-11.151950357449319
 20
-68.767368169317365
 30
0.0
 11
10.99999999999965
 21
-68.767368169317365
 31
0.0
  0
LINE
  5
A8
  8
0
 10
10.99999999999965
 20
-55.000000000000099
 30
0.0
 11
-11.000000000000339
 21
-55.000000000000099
 31
0.0
  0
LINE
  5
A9
  8
0
 10
-11.000000000000339
 20
-67.000000000000085
 30
0.0
 11
10.99999999999965
 21
-67.000000000000085
 31
0.0
  0
LINE
  5
AA
  8
0
 10
50.596442562694037
 20
-54.0
 30
0.0
 11
-50.596442562694293
 21
-54.0
 31
0.0
  0
LINE
  5
AB
  8
0
 10
-35.483150151708458
 20
-54.0
 30
0.0
 11
-23.15353549048347
 21
-60.876624650404779
 31
0.0
  0
LINE
  5
AC
  8
0
 10
-35.501550986053708
 20
-56.852281305680492
 30
0.0
 11
-28.087927975363868
 21
-60.987098503532238
 31
0.0
  0
ARC
  5
AD
  8
0
 10
-26.4519239185671
 20
-49.340156276385642
 30
0.0
 40
10.96873477960307
 50
218.08525604811581
 51
263.61510255923361
  0
ARC
  5
AE
  8
0
 10
-0.0000000000001137
 20
0.0
 30
0.0
 40
74.0
 50
223.13625887129561
 51
226.86374112870399
  0
LINE
  5
AF
  8
0
 10
-37.359878513288947
 20
-55.815831973447978
 30
0.0
 11
-35.501550986053708
 21
-56.852281305680492
 31
0.0
  0
ARC
  5
B0
  8
0
 10
-35.861271314155708
 20
-53.128867040330078
 30
0.0
 40
3.076622188228515
 50
196.4480519582529
 51
284.60774246902878
  0
LINE
  5
B1
  8
0
 10
-34.283813555644542
 20
-54.668908788087542
 30
0.0
 11
-35.08534681676111
 21
-56.106037721268599
 31
0.0
  0
CIRCLE
  5
B2
  8
0
 10
-44.999999999999879
 20
-45.0
 30
0.0
 40
4.25
  0
ARC
  5
B3
  8
0
 10
-24.7309932489955
 20
-59.336582902647763
 30
0.0
 40
3.0766221882279479
 50
197.09261613831171
 51
284.60774246903509
  0
LINE
  5
B4
  8
0
 10
-26.870190544954649
 20
-58.803725985939181
 30
0.0
 11
-27.67172380607127
 21
-60.240854919120288
 31
0.0
  0
LINE
  5
B5
  8
0
 10
-28.087927975363868
 20
-60.987098503532238
 30
0.0
 11
-26.229600448128281
 21
-62.02354783576498
 31
0.0
  0
LINE
  5
B6
  8
0
 10
-24.625099464885292
 20
-60.055885853689219
 30
0.0
 11
-23.40736203447608
 21
-57.87251333609629
 31
0.0
  0
LINE
  5
B7
  8
0
 10
-23.95506875159985
 20
-62.313753583585537
 30
0.0
 11
-23.15353549048347
 21
-60.876624650404779
 31
0.0
  0
LINE
  5
B8
  8
0
 10
-21.935798060074202
 20
-58.693252132811722
 30
0.0
 11
-30.350680832850799
 21
-54.0
 31
0.0
  0
LINE
  5
B9
  8
0
 10
-21.935798060074202
 20
-58.693252132811722
 30
0.0
 11
-19.318219636593131
 21
-54.0
 31
0.0
  0
LINE
  5
BA
  8
0
 10
-13.500000000000339
 20
-55.000000000000099
 30
0.0
 11
-13.500000000000339
 21
-54.000000000000107
 31
0.0
  0
ARC
  5
BB
  8
0
 10
-8.6139627680871609
 20
-67.892461630354433
 30
0.0
 40
3.8749065389628901
 50
229.0818410078268
 51
310.91815899217312
  0
LINE
  5
BC
  8
0
 10
-6.075975178724887
 20
-68.767368169317365
 30
0.0
 11
-6.075975178724887
 21
-70.820518952529142
 31
0.0
  0
LINE
  5
BD
  8
0
 10
-11.151950357449319
 20
-68.767368169317365
 30
0.0
 11
-11.151950357449319
 21
-70.820518952529369
 31
0.0
  0
LINE
  5
BE
  8
0
 10
-10.00000000000033
 20
-67.000000000000085
 30
0.0
 11
-10.00000000000033
 21
-68.767368169317365
 31
0.0
  0
LINE
  5
BF
  8
0
 10
-11.000000000000339
 20
-55.000000000000099
 30
0.0
 11
-11.000000000000339
 21
-67.000000000000085
 31
0.0
  0
ARC
  5
C0
  8
0
 10
26.451923918566639
 20
-49.340156276385777
 30
0.0
 40
10.96873477960307
 50
276.384897440766
 51
321.91474395188368
  0
LINE
  5
C1
  8
0
 10
35.501550986053182
 20
-56.852281305680677
 30
0.0
 11
28.08792797536336
 21
-60.987098503532422
 31
0.0
  0
LINE
  5
C2
  8
0
 10
35.48315015170801
 20
-54.000000000000192
 30
0.0
 11
23.153535490482959
 21
-60.876624650404921
 31
0.0
  0
LINE
  5
C3
  8
0
 10
13.49999999999965
 20
-55.000000000000099
 30
0.0
 11
13.49999999999965
 21
-54.000000000000107
 31
0.0
  0
LINE
  5
C4
  8
0
 10
9.8480496425506754
 20
-67.000000000000085
 30
0.0
 11
9.8480496425506754
 21
-68.767368169317365
 31
0.0
  0
LINE
  5
C5
  8
0
 10
10.99999999999965
 20
-68.767368169317365
 30
0.0
 11
10.99999999999965
 21
-70.82051895252971
 31
0.0
  0
LINE
  5
C6
  8
0
 10
5.9240248212751112
 20
-68.767368169317365
 30
0.0
 11
5.9240248212752231
 21
-70.820518952529142
 31
0.0
  0
ARC
  5
C7
  8
0
 10
8.4620124106373851
 20
-67.892461630354433
 30
0.0
 40
3.8749065389628901
 50
229.0818410078268
 51
310.91815899217312
  0
LINE
  5
C8
  8
0
 10
10.99999999999965
 20
-67.000000000000085
 30
0.0
 11
10.99999999999965
 21
-55.000000000000099
 31
0.0
  0
LINE
  5
C9
  8
0
 10
21.93579806007369
 20
-58.693252132811828
 30
0.0
 11
19.31821963659268
 21
-54.000000000000107
 31
0.0
  0
LINE
  5
CA
  8
0
 10
21.93579806007369
 20
-58.693252132811828
 30
0.0
 11
30.35068083285034
 21
-54.000000000000171
 31
0.0
  0
LINE
  5
CB
  8
0
 10
23.955068751599342
 20
-62.31375358358568
 30
0.0
 11
23.153535490482959
 21
-60.876624650404921
 31
0.0
  0
LINE
  5
CC
  8
0
 10
24.62509946488478
 20
-60.055885853689361
 30
0.0
 11
23.407362034475561
 21
-57.872513336096432
 31
0.0
  0
LINE
  5
CD
  8
0
 10
28.08792797536336
 20
-60.987098503532422
 30
0.0
 11
26.229600448127769
 21
-62.023547835765129
 31
0.0
  0
LINE
  5
CE
  8
0
 10
26.870190544954141
 20
-58.80372598593933
 30
0.0
 11
27.671723806070759
 21
-60.240854919120459
 31
0.0
  0
ARC
  5
CF
  8
0
 10
24.730993248994981
 20
-59.336582902647912
 30
0.0
 40
3.0766221882279479
 50
255.3922575309644
 51
342.90738386168772
  0
ARC
  5
D0
  8
0
 10
-0.0000000000001137
 20
0.0
 30
0.0
 40
74.0
 50
313.13625887129581
 51
316.86374112870419
  0
LINE
  5
D1
  8
0
 10
34.283813555644031
 20
-54.668908788087748
 30
0.0
 11
35.085346816760591
 21
-56.106037721268791
 31
0.0
  0
ARC
  5
D2
  8
0
 10
35.86127131415526
 20
-53.128867040330277
 30
0.0
 40
3.076622188228515
 50
255.39225753097071
 51
343.55194804174658
  0
LINE
  5
D3
  8
0
 10
37.359878513288422
 20
-55.815831973448176
 30
0.0
 11
35.501550986053182
 21
-56.852281305680677
 31
0.0
  0
CIRCLE
  5
D4
  8
0
 10
44.999999999999879
 20
-44.999999999999773
 30
0.0
 40
4.25
  0
LINE
  5
D8
  8
MITTELLI
 10
-64.672844672964288
 20
-0.0000000000002842
 30
0.0
 11
0.0
 21
0.0000000000001137
 31
0.0
  0
LINE
  5
D9
  8
0
 10
-50.596442562694293
 20
54.0
 30
0.0
 11
50.596442562694037
 21
54.0
 31
0.0
  0
CIRCLE
  5
DA
  8
0
 10
-45.000000000000099
 20
44.999999999999773
 30
0.0
 40
4.25
  0
ARC
  5
DB
  8
0
 10
-0.0000000000001137
 20
0.0
 30
0.0
 40
74.0
 50
133.13625887129581
 51
136.86374112870411
  0
LINE
  5
DC
  8
MITTELLI
 10
-0.0000000000001137
 20
64.672844672964231
 30
0.0
 11
-0.0000000000001137
 21
0.0
 31
0.0
  0
LINE
  5
DD
  8
MITTELLI
 10
-0.0000000000001137
 20
0.0
 30
0.0
 11
59.153700222651651
 21
0.0
 31
0.0
  0
CIRCLE
  5
E1
  8
0
 10
44.999999999999659
 20
45.000000000000057
 30
0.0
 40
4.25
  0
ARC
  5
E2
  8
0
 10
-0.0000000000001137
 20
0.0
 30
0.0
 40
74.0
 50
43.136258871295809
 51
46.863741128704199
  0
CIRCLE
  5
ED
  8
0
 10
-0.0000000000001137
 20
0.0
 30
0.0
 40
30.0
  0
CIRCLE
  5
EE
  8
0
 10
-0.0000000000001137
 20
0.0
 30
0.0
 40
13.5
  0
CIRCLE
  5
EF
  8
0
 10
-0.0000000000002274
 20
-0.0000000000001137
 30
0.0
 40
8.0
  0
LINE
  5
F0
  8
0
 10
10.000000000001251
 20
-2.4999999999998859
 30
0.0
 11
10.000000000001251
 21
2.4999999999998859
 31
0.0
  0
LINE
  5
F1
  8
0
 10
10.000000000001251
 20
2.4999999999998859
 30
0.0
 11
7.5993420767851037
 21
2.4999999999998859
 31
0.0
  0
LINE
  5
F2
  8
0
 10
10.000000000001251
 20
-2.4999999999998859
 30
0.0
 11
7.5993420767851791
 21
-2.4999999999998859
 31
0.0
  0
ENDSEC
  0
EOF
