  0
SECTION
  2
HEADER
  9
$ACADVER
  1
AC1009
  9
$INSBASE
 10
0.0
 20
0.0
 30
0.0
  9
$EXTMIN
 10
-52.597740040597728
 20
-64.745777035208903
 30
-0.0015258207003583
  9
$EXTMAX
 10
289.4555195242919
 20
54.005470620257363
 30
0.0000000349246037
  9
$LIMMIN
 10
0.0
 20
0.0
  9
$LIMMAX
 10
410.0
 20
287.0
  9
$ORTHOMODE
 70
     1
  9
$REGENMODE
 70
     1
  9
$FILLMODE
 70
     1
  9
$QTEXTMODE
 70
     0
  9
$MIRRTEXT
 70
     0
  9
$DRAGMODE
 70
     2
  9
$LTSCALE
 40
25.0
  9
$OSMODE
 70
    39
  9
$ATTMODE
 70
     1
  9
$TEXTSIZE
 40
0.0
  9
$TRACEWID
 40
1.0
  9
$TEXTSTYLE
  7

  9
$CLAYER
  8
MITTELLI
  9
$CELTYPE
  6
BYLAYER
  9
$CECOLOR
 62
   256
  9
$DIMSCALE
 40
1.0
  9
$DIMASZ
 40
7.0
  9
$DIMEXO
 40
0.1
  9
$DIMDLI
 40
7.0
  9
$DIMRND
 40
0.0
  9
$DIMDLE
 40
0.0
  9
$DIMEXE
 40
1.8
  9
$DIMTP
 40
1.0
  9
$DIMTM
 40
1.0
  9
$DIMTXT
 40
3.5
  9
$DIMCEN
 40
1.5
  9
$DIMTSZ
 40
0.0
  9
$DIMTOL
 70
     0
  9
$DIMLIM
 70
     0
  9
$DIMTIH
 70
     0
  9
$DIMTOH
 70
     0
  9
$DIMSE1
 70
     0
  9
$DIMSE2
 70
     0
  9
$DIMTAD
 70
     1
  9
$DIMZIN
 70
     0
  9
$DIMBLK
  1

  9
$DIMASO
 70
     0
  9
$DIMSHO
 70
     1
  9
$DIMPOST
  1

  9
$DIMAPOST
  1

  9
$DIMALT
 70
     0
  9
$DIMALTD
 70
     2
  9
$DIMALTF
 40
25.399999999999999
  9
$DIMLFAC
 40
1.0
  9
$DIMTOFL
 70
     0
  9
$DIMTVP
 40
0.0
  9
$DIMTIX
 70
     0
  9
$DIMSOXD
 70
     0
  9
$DIMSAH
 70
     0
  9
$DIMBLK1
  1

  9
$DIMBLK2
  1

  9
$DIMSTYLE
  2
STANDARD
  9
$DIMCLRD
 70
     0
  9
$DIMCLRE
 70
     0
  9
$DIMCLRT
 70
     0
  9
$DIMTFAC
 40
1.0
  9
$DIMGAP
 40
0.09
  9
$LUNITS
 70
     2
  9
$LUPREC
 70
     4
  9
$SKETCHINC
 40
0.1
  9
$FILLETRAD
 40
0.0
  9
$AUNITS
 70
     0
  9
$AUPREC
 70
     0
  9
$MENU
  1
c:/acad/acad
  9
$ELEVATION
 40
0.0
  9
$PELEVATION
 40
0.0
  9
$THICKNESS
 40
0.0
  9
$LIMCHECK
 70
     0
  9
$BLIPMODE
 70
     0
  9
$CHAMFERA
 40
2.0
  9
$CHAMFERB
 40
2.0
  9
$SKPOLY
 70
     0
  9
$TDCREATE
 40
2448364.5747825229
  9
$TDUPDATE
 40
2452678.4681672798
  9
$TDINDWG
 40
0.2065868634
  9
$TDUSRTIMER
 40
0.2065840856
  9
$USRTIMER
 70
     1
  9
$ANGBASE
 50
0.0
  9
$ANGDIR
 70
     0
  9
$PDMODE
 70
     0
  9
$PDSIZE
 40
0.0
  9
$PLINEWID
 40
0.0
  9
$COORDS
 70
     0
  9
$SPLFRAME
 70
     0
  9
$SPLINETYPE
 70
     6
  9
$SPLINESEGS
 70
     8
  9
$ATTDIA
 70
     0
  9
$ATTREQ
 70
     1
  9
$HANDLING
 70
  4097
  9
$HANDSEED
  5
312F
  9
$SURFTAB1
 70
     6
  9
$SURFTAB2
 70
     6
  9
$SURFTYPE
 70
     6
  9
$SURFU
 70
     6
  9
$SURFV
 70
     6
  9
$UCSNAME
  2

  9
$UCSORG
 10
0.0
 20
0.0
 30
0.0
  9
$UCSXDIR
 10
1.0
 20
0.0
 30
0.0
  9
$UCSYDIR
 10
0.0
 20
1.0
 30
0.0
  9
$PUCSNAME
  2

  9
$PUCSORG
 10
0.0
 20
0.0
 30
0.0
  9
$PUCSXDIR
 10
1.0
 20
0.0
 30
0.0
  9
$PUCSYDIR
 10
0.0
 20
1.0
 30
0.0
  9
$USERI1
 70
     0
  9
$USERI2
 70
     0
  9
$USERI3
 70
     0
  9
$USERI4
 70
     0
  9
$USERI5
 70
     0
  9
$USERR1
 40
0.0
  9
$USERR2
 40
0.0
  9
$USERR3
 40
0.0
  9
$USERR4
 40
0.0
  9
$USERR5
 40
0.0
  9
$WORLDVIEW
 70
     1
  9
$SHADEDGE
 70
     3
  9
$SHADEDIF
 70
    70
  9
$TILEMODE
 70
     1
  9
$MAXACTVP
 70
    48
  9
$PLIMCHECK
 70
     0
  9
$PEXTMIN
 10
1.0000000000000000E+020
 20
1.0000000000000000E+020
 30
1.0000000000000000E+020
  9
$PEXTMAX
 10
-1.0000000000000000E+020
 20
-1.0000000000000000E+020
 30
-1.0000000000000000E+020
  9
$PLIMMIN
 10
0.0
 20
0.0
  9
$PLIMMAX
 10
12.0
 20
9.0
  9
$UNITMODE
 70
     0
  9
$VISRETAIN
 70
     1
  9
$PLINEGEN
 70
     0
  9
$PSLTSCALE
 70
     0
  0
ENDSEC
  0
SECTION
  2
TABLES
  0
TABLE
  2
VPORT
 70
     3
  0
VPORT
  2
*ACTIVE
 70
     0
 10
0.0
 20
0.0
 11
1.0
 21
1.0
 12
118.4288897418471
 22
-5.3701532074757656
 13
0.0
 23
0.0
 14
0.5
 24
0.5
 15
10.0
 25
10.0
 16
0.0
 26
0.0
 36
1.0
 17
0.0
 27
0.0
 37
0.0
 40
162.21053364352261
 41
2.126099706744867
 42
50.0
 43
0.0
 44
0.0
 50
0.0
 51
0.0
 71
     0
 72
   100
 73
     1
 74
     0
 75
     0
 76
     0
 77
     0
 78
     0
  0
ENDTAB
  0
TABLE
  2
LTYPE
 70
     2
  0
LTYPE
  2
CONTINUOUS
 70
     0
  3
Solid line
 72
    65
 73
     0
 40
0.0
  0
LTYPE
  2
MITTKLEIN
 70
     0
  3
__ . __ . ___ 
 72
    65
 73
     4
 40
0.45
 49
0.25
 49
-0.1
 49
0.0
 49
-0.1
  0
ENDTAB
  0
TABLE
  2
LAYER
 70
     2
  0
LAYER
  2
0
 70
     0
 62
     7
  6
CONTINUOUS
  0
LAYER
  2
MITTELLI
 70
     0
 62
     1
  6
MITTKLEIN
  0
ENDTAB
  0
TABLE
  2
STYLE
 70
     6
  0
STYLE
  2
STANDARD
 70
     0
 40
0.0
 41
1.0
 50
0.0
 71
     0
 42
0.2
  3
txt
  4

  0
STYLE
  2

 70
     0
 40
0.0
 41
0.0
 50
0.0
 71
     0
 42
0.0
  3
txt
  4

  0
STYLE
  2

 70
     0
 40
0.0
 41
0.0
 50
0.0
 71
     0
 42
0.0
  3
txt
  4

  0
STYLE
  2
TXT
 70
     0
 40
0.0
 41
1.0
 50
0.0
 71
     0
 42
2.5
  3
8txt
  4

  0
STYLE
  2
TEXT50
 70
     0
 40
5.0
 41
1.0
 50
0.0
 71
     0
 42
5.0
  3
8simplex
  4

  0
STYLE
  2
SIMPLEX
 70
     0
 40
0.0
 41
1.0
 50
0.0
 71
     0
 42
8.0
  3
8simplex
  4

  0
ENDTAB
  0
TABLE
  2
VIEW
 70
     0
  0
ENDTAB
  0
TABLE
  2
UCS
 70
     0
  0
ENDTAB
  0
TABLE
  2
APPID
 70
     1
  0
APPID
  2
ACAD
 70
     0
  0
ENDTAB
  0
TABLE
  2
DIMSTYLE
 70
     1
  0
DIMSTYLE
  2
STANDARD
 70
     0
  3

  4

  5

  6

  7

 40
1.0
 41
0.18
 42
0.0625
 43
0.38
 44
0.18
 45
0.0
 46
0.0
 47
0.0
 48
0.0
140
0.18
141
0.09
142
0.0
143
25.399999999999999
144
1.0
145
0.0
146
1.0
147
0.09
 71
     0
 72
     0
 73
     1
 74
     1
 75
     0
 76
     0
 77
     0
 78
     0
170
     0
171
     2
172
     0
173
     0
174
     0
175
     0
176
     0
177
     0
178
     0
  0
ENDTAB
  0
ENDSEC
  0
SECTION
  2
BLOCKS
  0
BLOCK
  8
0
  2
$MODEL_SPACE
 70
     0
 10
0.0
 20
0.0
 30
0.0
  3
$MODEL_SPACE
  1

  0
ENDBLK
  5
1816
  8
0
  0
BLOCK
 67
     1
  8
0
  2
$PAPER_SPACE
 70
     0
 10
0.0
 20
0.0
 30
0.0
  3
$PAPER_SPACE
  1

  0
ENDBLK
  5
1812
 67
     1
  8
0
  0
ENDSEC
  0
SECTION
  2
ENTITIES
  0
LINE
  5
1826
  8
0
 10
-49.0
 20
8.0
 30
0.0
 11
-1.5
 21
8.0
 31
0.0
  0
LINE
  5
1827
  8
0
 10
-49.0
 20
-8.0
 30
0.0
 11
-1.5
 21
-8.0
 31
0.0
  0
LINE
  5
1828
  8
MITTELLI
 10
-52.583624185727267
 20
0.0
 30
0.0
 11
289.43791994314921
 21
0.0
 31
0.0
  0
LINE
  5
1829
  8
0
 10
-49.0
 20
8.0
 30
0.0
 11
-49.0
 21
-8.0
 31
0.0
  0
LINE
  5
182A
  8
0
 10
-49.999999999999929
 20
-7.0000000000001119
 30
0.0
 11
-50.0
 21
7.0
 31
0.0
  0
POINT
  5
182B
  8
0
 10
-50.0
 20
-7.0
 30
0.0
  0
LINE
  5
182C
  8
0
 10
-49.0
 20
-8.0
 30
0.0
 11
-49.999999999999929
 21
-7.0000000000001119
 31
0.0
  0
LINE
  5
182D
  8
0
 10
-42.5
 20
-2.5
 30
0.0
 11
-27.5
 21
-2.5
 31
0.0
  0
LINE
  5
182E
  8
0
 10
-42.5
 20
2.5
 30
0.0
 11
-27.5
 21
2.5
 31
0.0
  0
POINT
  5
182F
  8
0
 10
-50.0
 20
2.5
 30
0.0
  0
POINT
  5
1830
  8
0
 10
-50.0
 20
7.0
 30
0.0
  0
LINE
  5
1831
  8
0
 10
-49.0
 20
8.0
 30
0.0
 11
-50.0
 21
7.0
 31
0.0
  0
ARC
  5
1832
  8
0
 10
-42.5
 20
0.0
 30
0.0
 40
2.5
 50
90.0
 51
270.0
  0
ARC
  5
1833
  8
0
 10
-27.5
 20
0.0
 30
0.0
 40
2.5
 50
269.99996170827558
 51
90.000038291724223
  0
LINE
  5
1834
  8
0
 10
-1.5
 20
-30.0
 30
0.0
 11
-1.5
 21
30.0
 31
0.0
  0
LINE
  5
1835
  8
0
 10
0.0
 20
-54.000000000000021
 30
0.0
 11
0.0
 21
54.0
 31
0.0
  0
LINE
  5
1836
  8
0
 10
9.0
 20
-54.0
 30
0.0
 11
9.0
 21
54.0
 31
0.0
  0
LINE
  5
1837
  8
0
 10
282.5
 20
54.0
 30
0.0
 11
282.5
 21
-54.0
 31
0.0
  0
LINE
  5
1838
  8
0
 10
230.9999999999998
 20
54.0
 30
0.0
 11
230.9999999999998
 21
-54.0
 31
0.0
  0
POLYLINE
  5
1839
  8
0
 66
     1
 10
0.0
 20
0.0
 30
0.0
  0
VERTEX
  5
312B
  8
0
 10
9.0000000000000284
 20
54.0
 30
0.0
  0
VERTEX
  5
312C
  8
0
 10
285.5
 20
54.000000000000021
 30
0.0
  0
VERTEX
  5
312D
  8
0
 10
285.5
 20
-54.000000000000021
 30
0.0
  0
SEQEND
  5
312E
  8
0
  0
TEXT
  5
2EC3
  8
0
 10
14.79737242658083
 20
-48.71622466360941
 30
0.0
 40
5.1200000000000001
  1
SM 107.4.18 MHP
  0
LINE
  5
2EC4
  8
0
 10
9.0
 20
-50.596442562694037
 30
0.0
 11
0.0
 21
-50.596442562694037
 31
0.0
  0
LINE
  5
2EC5
  8
0
 10
-1.5
 20
-30.0
 30
0.0
 11
0.0
 21
-30.0
 31
0.0
  0
LINE
  5
2EE7
  8
0
 10
-1.5
 20
30.0
 30
0.0
 11
0.0
 21
30.0
 31
0.0
  0
POINT
  5
2EE8
  8
0
 10
0.0
 20
54.0
 30
0.0
  0
LINE
  5
2EE9
  8
0
 10
0.0
 20
54.0
 30
0.0
 11
9.0
 21
54.0
 31
0.0
  0
LINE
  5
2EEA
  8
0
 10
9.0
 20
50.59644256269393
 30
0.0
 11
0.0
 21
50.59644256269393
 31
0.0
  0
LINE
  5
2EEB
  8
0
 10
288.13892998897302
 20
51.341664200661512
 30
0.0
 11
285.5
 21
51.499999999999773
 31
0.0
  0
LINE
  5
2EEC
  8
0
 10
288.75
 20
48.89999999999975
 30
0.0
 11
287.44999999999987
 21
48.89999999999975
 31
0.0
  0
LINE
  5
2EED
  8
0
 10
288.75
 20
50.692831051108662
 30
0.0
 11
288.75
 21
48.89999999999975
 31
0.0
  0
ARC
  5
2EEE
  8
0
 10
288.10000000000002
 20
50.692831051108662
 30
0.0
 40
0.65
 50
0.0
 51
86.566369637550537
  0
LINE
  5
2EEF
  8
0
 10
288.75
 20
47.599999999999781
 30
0.0
 11
287.44999999999987
 21
47.599999999999781
 31
0.0
  0
LINE
  5
2EF0
  8
0
 10
288.75
 20
45.80716894889099
 30
0.0
 11
288.75
 21
47.599999999999781
 31
0.0
  0
LINE
  5
2EF1
  8
0
 10
287.44999999999987
 20
48.89999999999975
 30
0.0
 11
287.44999999999987
 21
47.599999999999781
 31
0.0
  0
LINE
  5
2EF2
  8
0
 10
288.13892998897302
 20
45.158335799338253
 30
0.0
 11
285.5
 21
44.999999999999773
 31
0.0
  0
ARC
  5
2EF3
  8
0
 10
288.10000000000002
 20
45.80716894889099
 30
0.0
 40
0.65
 50
273.43363036244932
 51
0.0
  0
LINE
  5
30B8
  8
0
 10
267.4999999999979
 20
-58.658817774853262
 30
0.0
 11
261.26543175171679
 21
-59.562855310413831
 31
0.0
  0
LINE
  5
30B9
  8
0
 10
267.4999999999979
 20
-64.736398831964195
 30
0.0
 11
261.26543175171679
 21
-63.832361296403668
 31
0.0
  0
ARC
  5
30BA
  8
0
 10
267.50000000000011
 20
-69.147022374327221
 30
0.0
 40
8.5330334904247067
 50
65.122103603562763
 51
114.87789639643719
  0
ARC
  5
30BB
  8
0
 10
267.50000000000011
 20
-54.225102381545128
 30
0.0
 40
8.6696087345522432
 50
245.3219483027535
 51
294.67805169724278
  0
ARC
  5
30BC
  8
0
 10
267.49999999999977
 20
-51.650378869081969
 30
0.0
 40
12.60815275542957
 50
33.857998802880211
 51
146.14200119711521
  0
ARC
  5
30BD
  8
0
 10
267.50000000000023
 20
-68.192137778978321
 30
0.0
 40
17.005580066645241
 50
54.200970993750452
 51
125.7990290062495
  0
LINE
  5
30BE
  8
0
 10
267.50000000000011
 20
-54.948394907271769
 30
0.0
 11
261.26543175171912
 21
-55.852432442832338
 31
0.0
  0
ARC
  5
30BF
  8
0
 10
267.60925342308821
 20
-68.160859343328966
 30
0.0
 40
14.93141625830204
 50
56.894423584628768
 51
123.1055764153712
  0
LINE
  5
30C0
  8
0
 10
257.02992616138999
 20
-55.84182303628868
 30
0.0
 11
257.02992616138999
 21
-44.625916632134292
 31
0.0
  0
LINE
  5
30C1
  8
0
 10
257.02992616139011
 20
-55.841823036288602
 30
0.0
 11
257.02992616139011
 21
-44.625916632134199
 31
0.0
  0
ARC
  5
30C5
  8
0
 10
259.40919338828053
 20
-55.888132888009537
 30
0.0
 40
2.3797178696897441
 50
141.27305377249499
 51
241.89179587316031
  0
LINE
  5
30C6
  8
0
 10
258.2880174249247
 20
-61.697608303408721
 30
0.0
 11
258.28801742492448
 21
-57.987185435828827
 31
0.0
  0
LINE
  5
30C7
  8
0
 10
261.26543175171679
 20
-59.562855310413831
 30
0.0
 11
258.28801742492249
 21
-61.697608303410263
 31
0.0
  0
LINE
  5
30C8
  8
0
 10
261.26543175171651
 20
-63.832361296406738
 30
0.0
 11
258.28801742492249
 21
-61.697608303410263
 31
0.0
  0
ARC
  5
30CC
  8
0
 10
264.13658918802241
 20
-61.764735127133179
 30
0.0
 40
0.4243268062755158
 50
122.23224679872889
 51
232.8392969757243
  0
LINE
  5
30CD
  8
0
 10
261.26543175171912
 20
-55.852432442832338
 30
0.0
 11
258.28801742492448
 21
-57.987185435828827
 31
0.0
  0
LINE
  5
30CE
  8
0
 10
259.4539603667925
 20
-57.151225132146273
 30
0.0
 11
259.4539603667925
 21
-55.653326147505688
 31
0.0
  0
LINE
  5
30CF
  8
0
 10
261.26543175171912
 20
-55.852432442832338
 30
0.0
 11
261.26543175171912
 21
-59.562855310413489
 31
0.0
  0
LINE
  5
30D0
  8
0
 10
277.97007383861012
 20
-44.625916632134683
 30
0.0
 11
277.97007383861012
 21
-55.653326147505737
 31
0.0
  0
LINE
  5
30D1
  8
0
 10
277.97007383861001
 20
-44.62591663213459
 30
0.0
 11
277.97007383861001
 21
-55.653326147505673
 31
0.0
  0
LINE
  5
30D2
  8
0
 10
285.5
 20
-54.000000000000021
 30
0.0
 11
277.97007383860978
 21
-54.000000000000021
 31
0.0
  0
LINE
  5
30D3
  8
0
 10
285.5
 20
-54.000000000000021
 30
0.0
 11
282.50000000000011
 21
-54.000000000000021
 31
0.0
  0
LINE
  5
30D9
  8
0
 10
273.73456824828332
 20
-59.562855310413831
 30
0.0
 11
276.71198257507768
 21
-61.697608303410263
 31
0.0
  0
LINE
  5
30DA
  8
0
 10
273.73456824828332
 20
-63.832361296403668
 30
0.0
 11
276.71198257507768
 21
-61.697608303407193
 31
0.0
  0
LINE
  5
30DB
  8
0
 10
273.73456824828111
 20
-55.852432442832338
 30
0.0
 11
276.71198257507552
 21
-57.987185435828827
 31
0.0
  0
LINE
  5
30DC
  8
0
 10
267.5000000000021
 20
-64.736398831964195
 30
0.0
 11
273.73456824828332
 21
-63.832361296403668
 31
0.0
  0
ARC
  5
30DE
  8
0
 10
270.86341081197781
 20
-61.764735127133179
 30
0.0
 40
0.4243268062755158
 50
307.16070302427562
 51
57.767753201270999
  0
LINE
  5
30DF
  8
0
 10
267.5000000000021
 20
-58.658817774853262
 30
0.0
 11
273.73456824828332
 21
-59.562855310413831
 31
0.0
  0
LINE
  5
30E0
  8
0
 10
267.50000000000011
 20
-54.948394907271769
 30
0.0
 11
273.73456824828111
 21
-55.852432442832338
 31
0.0
  0
LINE
  5
30E1
  8
0
 10
267.50000000000011
 20
-54.948394907271769
 30
0.0
 11
267.50000000000011
 21
-58.658817774852963
 31
0.0
  0
LINE
  5
30E2
  8
0
 10
273.73456824828111
 20
-55.852432442832338
 30
0.0
 11
273.73456824828111
 21
-59.562855310413489
 31
0.0
  0
LINE
  5
30E3
  8
0
 10
276.71198257507768
 20
-61.697608303407193
 30
0.0
 11
276.71198257507552
 21
-57.987185435828827
 31
0.0
  0
LINE
  5
30E5
  8
0
 10
275.76454647938442
 20
-57.151225132146273
 30
0.0
 11
275.76454647938442
 21
-55.653326147505688
 31
0.0
  0
ARC
  5
30E6
  8
0
 10
275.59080640363737
 20
-55.888132845362676
 30
0.0
 40
2.3797180053420761
 50
298.10820806217282
 51
38.726942292201343
  0
LINE
  5
30E7
  8
0
 10
288.75
 20
-45.807168948891018
 30
0.0
 11
288.75
 21
-47.599999999999817
 31
0.0
  0
ARC
  5
30E8
  8
0
 10
288.09999999999991
 20
-50.692831051108691
 30
0.0
 40
0.65
 50
273.43363036244961
 51
0.0
  0
LINE
  5
30E9
  8
0
 10
288.75
 20
-48.899999999999778
 30
0.0
 11
287.44999999999987
 21
-48.899999999999778
 31
0.0
  0
LINE
  5
30EA
  8
0
 10
288.75
 20
-47.599999999999817
 30
0.0
 11
287.44999999999987
 21
-47.599999999999817
 31
0.0
  0
LINE
  5
30EB
  8
0
 10
288.13892998897308
 20
-51.34166420066154
 30
0.0
 11
285.5
 21
-51.499999999999801
 31
0.0
  0
LINE
  5
30EC
  8
0
 10
287.44999999999987
 20
-48.899999999999778
 30
0.0
 11
287.44999999999987
 21
-47.599999999999817
 31
0.0
  0
LINE
  5
30ED
  8
0
 10
288.75
 20
-50.692831051108691
 30
0.0
 11
288.75
 21
-48.899999999999778
 31
0.0
  0
ARC
  5
30EE
  8
0
 10
288.09999999999991
 20
-45.807168948891018
 30
0.0
 40
0.65
 50
0.0
 51
86.566369637550423
  0
LINE
  5
30EF
  8
0
 10
288.13892998897308
 20
-45.158335799338282
 30
0.0
 11
285.5
 21
-44.999999999999801
 31
0.0
  0
LINE
  5
30F0
  8
0
 10
257.02992616138982
 20
-54.000000000000021
 30
0.0
 11
0.0
 21
-54.000000000000021
 31
0.0
  0
ENDSEC
  0
EOF
