  0
SECTION
  2
HEADER
  9
$ACADVER
  1
AC1009
  9
$INSBASE
 10
0.0
 20
0.0
 30
0.0
  9
$EXTMIN
 10
-52.583624185727238
 20
-74.411764705882845
 30
-0.00000001
  9
$EXTMAX
 10
321.8787181058205
 20
54.0
 30
0.00000001
  9
$LIMMIN
 10
0.0
 20
0.0
  9
$LIMMAX
 10
410.0
 20
287.0
  9
$ORTHOMODE
 70
     1
  9
$REGENMODE
 70
     1
  9
$FILLMODE
 70
     1
  9
$QTEXTMODE
 70
     0
  9
$MIRRTEXT
 70
     0
  9
$DRAGMODE
 70
     2
  9
$LTSCALE
 40
25.0
  9
$OSMODE
 70
    39
  9
$ATTMODE
 70
     1
  9
$TEXTSIZE
 40
8.0
  9
$TRACEWID
 40
1.0
  9
$TEXTSTYLE
  7
SIMPLEX
  9
$CLAYER
  8
0
  9
$CELTYPE
  6
BYLAYER
  9
$CECOLOR
 62
   256
  9
$DIMSCALE
 40
1.0
  9
$DIMASZ
 40
7.0
  9
$DIMEXO
 40
0.1
  9
$DIMDLI
 40
7.0
  9
$DIMRND
 40
0.0
  9
$DIMDLE
 40
0.0
  9
$DIMEXE
 40
1.8
  9
$DIMTP
 40
1.0
  9
$DIMTM
 40
1.0
  9
$DIMTXT
 40
3.5
  9
$DIMCEN
 40
1.5
  9
$DIMTSZ
 40
0.0
  9
$DIMTOL
 70
     0
  9
$DIMLIM
 70
     0
  9
$DIMTIH
 70
     0
  9
$DIMTOH
 70
     0
  9
$DIMSE1
 70
     0
  9
$DIMSE2
 70
     0
  9
$DIMTAD
 70
     1
  9
$DIMZIN
 70
     0
  9
$DIMBLK
  1

  9
$DIMASO
 70
     0
  9
$DIMSHO
 70
     1
  9
$DIMPOST
  1

  9
$DIMAPOST
  1

  9
$DIMALT
 70
     0
  9
$DIMALTD
 70
     2
  9
$DIMALTF
 40
25.399999999999999
  9
$DIMLFAC
 40
1.0
  9
$DIMTOFL
 70
     0
  9
$DIMTVP
 40
0.0
  9
$DIMTIX
 70
     0
  9
$DIMSOXD
 70
     0
  9
$DIMSAH
 70
     0
  9
$DIMBLK1
  1

  9
$DIMBLK2
  1

  9
$DIMSTYLE
  2
STANDARD
  9
$DIMCLRD
 70
     0
  9
$DIMCLRE
 70
     0
  9
$DIMCLRT
 70
     0
  9
$DIMTFAC
 40
1.0
  9
$DIMGAP
 40
0.09
  9
$LUNITS
 70
     2
  9
$LUPREC
 70
     4
  9
$SKETCHINC
 40
0.1
  9
$FILLETRAD
 40
0.0
  9
$AUNITS
 70
     0
  9
$AUPREC
 70
     0
  9
$MENU
  1
c:/acad/acad
  9
$ELEVATION
 40
0.0
  9
$PELEVATION
 40
0.0
  9
$THICKNESS
 40
0.0
  9
$LIMCHECK
 70
     0
  9
$BLIPMODE
 70
     0
  9
$CHAMFERA
 40
2.0
  9
$CHAMFERB
 40
2.0
  9
$SKPOLY
 70
     0
  9
$TDCREATE
 40
2448364.5747825229
  9
$TDUPDATE
 40
2452677.771314282
  9
$TDINDWG
 40
0.1891184606
  9
$TDUSRTIMER
 40
0.1891184606
  9
$USRTIMER
 70
     1
  9
$ANGBASE
 50
0.0
  9
$ANGDIR
 70
     0
  9
$PDMODE
 70
     0
  9
$PDSIZE
 40
0.0
  9
$PLINEWID
 40
0.0
  9
$COORDS
 70
     0
  9
$SPLFRAME
 70
     0
  9
$SPLINETYPE
 70
     6
  9
$SPLINESEGS
 70
     8
  9
$ATTDIA
 70
     0
  9
$ATTREQ
 70
     1
  9
$HANDLING
 70
  4097
  9
$HANDSEED
  5
219
  9
$SURFTAB1
 70
     6
  9
$SURFTAB2
 70
     6
  9
$SURFTYPE
 70
     6
  9
$SURFU
 70
     6
  9
$SURFV
 70
     6
  9
$UCSNAME
  2

  9
$UCSORG
 10
0.0
 20
0.0
 30
0.0
  9
$UCSXDIR
 10
1.0
 20
0.0
 30
0.0
  9
$UCSYDIR
 10
0.0
 20
1.0
 30
0.0
  9
$PUCSNAME
  2

  9
$PUCSORG
 10
0.0
 20
0.0
 30
0.0
  9
$PUCSXDIR
 10
1.0
 20
0.0
 30
0.0
  9
$PUCSYDIR
 10
0.0
 20
1.0
 30
0.0
  9
$USERI1
 70
     0
  9
$USERI2
 70
     0
  9
$USERI3
 70
     0
  9
$USERI4
 70
     0
  9
$USERI5
 70
     0
  9
$USERR1
 40
0.0
  9
$USERR2
 40
0.0
  9
$USERR3
 40
0.0
  9
$USERR4
 40
0.0
  9
$USERR5
 40
0.0
  9
$WORLDVIEW
 70
     1
  9
$SHADEDGE
 70
     3
  9
$SHADEDIF
 70
    70
  9
$TILEMODE
 70
     1
  9
$MAXACTVP
 70
    48
  9
$PLIMCHECK
 70
     0
  9
$PEXTMIN
 10
1.0000000000000000E+020
 20
1.0000000000000000E+020
 30
1.0000000000000000E+020
  9
$PEXTMAX
 10
-1.0000000000000000E+020
 20
-1.0000000000000000E+020
 30
-1.0000000000000000E+020
  9
$PLIMMIN
 10
0.0
 20
0.0
  9
$PLIMMAX
 10
12.0
 20
9.0
  9
$UNITMODE
 70
     0
  9
$VISRETAIN
 70
     1
  9
$PLINEGEN
 70
     0
  9
$PSLTSCALE
 70
     0
  0
ENDSEC
  0
SECTION
  2
TABLES
  0
TABLE
  2
VPORT
 70
     3
  0
VPORT
  2
*ACTIVE
 70
     0
 10
0.0
 20
0.0
 11
1.0
 21
1.0
 12
139.45286176613641
 22
-8.8877329686513917
 13
0.0
 23
0.0
 14
0.5
 24
0.5
 15
10.0
 25
10.0
 16
0.0
 26
0.0
 36
1.0
 17
0.0
 27
0.0
 37
0.0
 40
182.1349451253088
 41
2.126099706744867
 42
50.0
 43
0.0
 44
0.0
 50
0.0
 51
0.0
 71
     0
 72
   100
 73
     1
 74
     0
 75
     0
 76
     0
 77
     0
 78
     0
  0
ENDTAB
  0
TABLE
  2
LTYPE
 70
     2
  0
LTYPE
  2
CONTINUOUS
 70
     0
  3
Solid line
 72
    65
 73
     0
 40
0.0
  0
LTYPE
  2
MITTKLEIN
 70
     0
  3
__ . __ . ___ 
 72
    65
 73
     4
 40
0.45
 49
0.25
 49
-0.1
 49
0.0
 49
-0.1
  0
ENDTAB
  0
TABLE
  2
LAYER
 70
     2
  0
LAYER
  2
0
 70
     0
 62
     7
  6
CONTINUOUS
  0
LAYER
  2
MITTELLI
 70
     0
 62
     1
  6
MITTKLEIN
  0
ENDTAB
  0
TABLE
  2
STYLE
 70
     3
  0
STYLE
  2
TXT
 70
     0
 40
0.0
 41
1.0
 50
0.0
 71
     0
 42
2.5
  3
8txt
  4

  0
STYLE
  2
SIMPLEX
 70
     0
 40
0.0
 41
1.0
 50
0.0
 71
     0
 42
8.0
  3
8simplex
  4

  0
STYLE
  2
STANDARD
 70
     0
 40
0.0
 41
1.0
 50
0.0
 71
     0
 42
0.2
  3
txt
  4

  0
ENDTAB
  0
TABLE
  2
VIEW
 70
     0
  0
ENDTAB
  0
TABLE
  2
UCS
 70
     0
  0
ENDTAB
  0
TABLE
  2
APPID
 70
     1
  0
APPID
  2
ACAD
 70
     0
  0
ENDTAB
  0
TABLE
  2
DIMSTYLE
 70
     1
  0
DIMSTYLE
  2
STANDARD
 70
     0
  3

  4

  5

  6

  7

 40
1.0
 41
0.18
 42
0.0625
 43
0.38
 44
0.18
 45
0.0
 46
0.0
 47
0.0
 48
0.0
140
0.18
141
0.09
142
0.0
143
25.399999999999999
144
1.0
145
0.0
146
1.0
147
0.09
 71
     0
 72
     0
 73
     1
 74
     1
 75
     0
 76
     0
 77
     0
 78
     0
170
     0
171
     2
172
     0
173
     0
174
     0
175
     0
176
     0
177
     0
178
     0
  0
ENDTAB
  0
ENDSEC
  0
SECTION
  2
BLOCKS
  0
BLOCK
  8
0
  2
$MODEL_SPACE
 70
     0
 10
0.0
 20
0.0
 30
0.0
  3
$MODEL_SPACE
  1

  0
ENDBLK
  5
9
  8
0
  0
BLOCK
 67
     1
  8
0
  2
$PAPER_SPACE
 70
     0
 10
0.0
 20
0.0
 30
0.0
  3
$PAPER_SPACE
  1

  0
ENDBLK
  5
E
 67
     1
  8
0
  0
ENDSEC
  0
SECTION
  2
ENTITIES
  0
LINE
  5
27
  8
0
 10
-48.999999999999972
 20
8.0
 30
0.0
 11
-1.5
 21
8.0
 31
0.0
  0
LINE
  5
28
  8
0
 10
-48.999999999999972
 20
-8.0
 30
0.0
 11
-1.5
 21
-8.0
 31
0.0
  0
LINE
  5
29
  8
MITTELLI
 10
-52.583624185727238
 20
0.0
 30
0.0
 11
314.93791994314921
 21
0.0
 31
0.0
  0
LINE
  5
2A
  8
0
 10
-42.5
 20
-2.5
 30
0.0
 11
-27.5
 21
-2.5
 31
0.0
  0
LINE
  5
2B
  8
0
 10
-42.5
 20
2.5
 30
0.0
 11
-27.5
 21
2.5
 31
0.0
  0
POINT
  5
2C
  8
0
 10
-49.999999999999972
 20
2.5
 30
0.0
  0
POINT
  5
2D
  8
0
 10
-49.999999999999972
 20
7.0
 30
0.0
  0
LINE
  5
2E
  8
0
 10
-48.999999999999972
 20
8.0
 30
0.0
 11
-50.000000000000028
 21
7.0
 31
0.0
  0
POINT
  5
2F
  8
0
 10
-49.999999999999972
 20
-7.0
 30
0.0
  0
LINE
  5
30
  8
0
 10
-48.999999999999972
 20
-8.0
 30
0.0
 11
-49.999999999999972
 21
-7.0000000000001128
 31
0.0
  0
ARC
  5
31
  8
0
 10
-42.5
 20
0.0
 30
0.0
 40
2.5
 50
90.0
 51
270.0
  0
LINE
  5
32
  8
0
 10
-48.999999999999972
 20
8.0
 30
0.0
 11
-48.999999999999972
 21
-8.0
 31
0.0
  0
LINE
  5
33
  8
0
 10
-49.999999999999972
 20
-7.0000000000001128
 30
0.0
 11
-50.000000000000028
 21
7.0
 31
0.0
  0
ARC
  5
34
  8
0
 10
-27.5
 20
0.0
 30
0.0
 40
2.5
 50
269.99996170827569
 51
90.000038291724223
  0
LINE
  5
61
  8
0
 10
315.49999999999977
 20
54.0
 30
0.0
 11
315.49999999999972
 21
-55.000000000000028
 31
0.0
  0
LINE
  5
62
  8
0
 10
288.49999999999977
 20
54.0
 30
0.0
 11
288.49999999999977
 21
-55.000000000000028
 31
0.0
  0
LINE
  5
63
  8
0
 10
318.49999999999977
 20
53.999999999999972
 30
0.0
 11
318.49999999999977
 21
-54.0
 31
0.0
  0
LINE
  5
64
  8
0
 10
0.0
 20
-54.0
 30
0.0
 11
0.0
 21
54.0
 31
0.0
  0
LINE
  5
65
  8
0
 10
9.0
 20
-54.0
 30
0.0
 11
9.0
 21
54.0
 31
0.0
  0
LINE
  5
66
  8
0
 10
230.99999999999989
 20
54.0
 30
0.0
 11
230.99999999999989
 21
-54.0
 31
0.0
  0
LINE
  5
67
  8
0
 10
234.49999999999989
 20
54.0
 30
0.0
 11
234.49999999999989
 21
-54.0
 31
0.0
  0
LINE
  5
68
  8
0
 10
288.49999999999977
 20
-54.0
 30
0.0
 11
0.0
 21
-54.0
 31
0.0
  0
TEXT
  5
69
  8
0
 10
14.797372426580919
 20
-48.71622466360941
 30
0.0
 40
5.1200000000000001
  1
SM 107.4.18 MBE50
  7
SIMPLEX
  0
LINE
  5
6A
  8
0
 10
9.0
 20
-50.596442562694051
 30
0.0
 11
0.0
 21
-50.596442562694051
 31
0.0
  0
LINE
  5
9B
  8
0
 10
0.0
 20
54.0
 30
0.0
 11
318.49999999999977
 21
53.999999999999972
 31
0.0
  0
LINE
  5
9C
  8
0
 10
-1.5
 20
-30.0
 30
0.0
 11
-1.5
 21
30.0
 31
0.0
  0
LINE
  5
9D
  8
0
 10
-1.5
 20
-30.0
 30
0.0
 11
0.0
 21
-30.0
 31
0.0
  0
LINE
  5
9E
  8
0
 10
-1.5
 20
30.0
 30
0.0
 11
0.0
 21
30.0
 31
0.0
  0
POINT
  5
9F
  8
0
 10
0.0
 20
54.0
 30
0.0
  0
LINE
  5
A0
  8
0
 10
9.0
 20
50.59644256269393
 30
0.0
 11
0.0
 21
50.59644256269393
 31
0.0
  0
LINE
  5
A1
  8
0
 10
321.74999999999977
 20
50.692831051108669
 30
0.0
 11
321.74999999999977
 21
48.89999999999975
 31
0.0
  0
LINE
  5
A2
  8
0
 10
321.13892998897302
 20
45.158335799338261
 30
0.0
 11
318.49999999999977
 21
44.999999999999773
 31
0.0
  0
LINE
  5
A3
  8
0
 10
321.74999999999977
 20
48.89999999999975
 30
0.0
 11
320.44999999999987
 21
48.89999999999975
 31
0.0
  0
ARC
  5
A4
  8
0
 10
321.0999999999998
 20
45.80716894889099
 30
0.0
 40
0.65
 50
273.43363036244938
 51
0.0
  0
LINE
  5
A5
  8
0
 10
321.74999999999977
 20
47.599999999999788
 30
0.0
 11
320.44999999999987
 21
47.599999999999788
 31
0.0
  0
LINE
  5
A6
  8
0
 10
321.74999999999977
 20
45.80716894889099
 30
0.0
 11
321.74999999999977
 21
47.599999999999788
 31
0.0
  0
LINE
  5
A7
  8
0
 10
320.44999999999987
 20
48.89999999999975
 30
0.0
 11
320.44999999999987
 21
47.599999999999788
 31
0.0
  0
ARC
  5
A8
  8
0
 10
321.0999999999998
 20
50.692831051108669
 30
0.0
 40
0.65
 50
0.0
 51
86.566369637550537
  0
LINE
  5
A9
  8
0
 10
321.13892998897302
 20
51.341664200661512
 30
0.0
 11
318.49999999999977
 21
51.499999999999773
 31
0.0
  0
LINE
  5
1A3
  8
0
 10
302.03772654946368
 20
-54.948394907271748
 30
0.0
 11
295.80315830118269
 21
-55.852432442832317
 31
0.0
  0
LINE
  5
1A4
  8
0
 10
302.03772654946152
 20
-58.65881777485324
 30
0.0
 11
295.80315830118042
 21
-59.562855310413802
 31
0.0
  0
ARC
  5
1A5
  8
0
 10
302.14697997255178
 20
-68.160859343328923
 30
0.0
 40
14.93141625830204
 50
56.894423584628342
 51
123.1055764153712
  0
ARC
  5
1A6
  8
0
 10
302.0377265494638
 20
-68.192137778978292
 30
0.0
 40
17.005580066645241
 50
54.200970993750452
 51
125.7990290062495
  0
ARC
  5
1A7
  8
0
 10
302.03772654946351
 20
-51.650378869081941
 30
0.0
 40
12.60815275542957
 50
33.857998802880211
 51
146.14200119711811
  0
LINE
  5
1A8
  8
0
 10
312.99999999999989
 20
-67.941176470588204
 30
0.0
 11
290.99999999999977
 21
-67.941176470588204
 31
0.0
  0
LINE
  5
1A9
  8
0
 10
312.99999999999989
 20
-71.176470588235276
 30
0.0
 11
290.99999999999977
 21
-71.176470588235276
 31
0.0
  0
ARC
  5
1AA
  8
0
 10
301.99999999999972
 20
-60.216931461690073
 30
0.0
 40
14.194833244192219
 50
247.2350767444407
 51
292.76492325555921
  0
LINE
  5
1AB
  8
0
 10
307.49270697594449
 20
-74.411764705882305
 30
0.0
 11
296.50729302405517
 21
-74.411764705882305
 31
0.0
  0
ARC
  5
1AC
  8
0
 10
302.03772654946368
 20
-54.225102381545113
 30
0.0
 40
8.6696087345522432
 50
245.32194830275381
 51
294.67805169724312
  0
ARC
  5
1AD
  8
0
 10
302.03772654946368
 20
-69.147022374327179
 30
0.0
 40
8.5330334904247067
 50
65.122103603562763
 51
114.87789639643719
  0
LINE
  5
1AE
  8
0
 10
302.03772654946152
 20
-64.736398831964152
 30
0.0
 11
295.80315830118042
 21
-63.832361296403647
 31
0.0
  0
LINE
  5
1AF
  8
0
 10
291.56765271085368
 20
-55.841823036288567
 30
0.0
 11
291.56765271085368
 21
-44.625916632134178
 31
0.0
  0
LINE
  5
1B0
  8
0
 10
291.56765271085362
 20
-55.841823036288659
 30
0.0
 11
291.56765271085362
 21
-44.625916632134263
 31
0.0
  0
LINE
  5
1B1
  8
0
 10
281.25780038807358
 20
-54.000000000000007
 30
0.0
 11
282.9185168341603
 21
-53.999999999999993
 31
0.0
  0
LINE
  5
1B2
  8
0
 10
290.99999999999977
 20
-67.941176470588204
 30
0.0
 11
290.99999999999977
 21
-55.000000000000021
 31
0.0
  0
LINE
  5
1B3
  8
0
 10
292.82574397438827
 20
-61.697608303408693
 30
0.0
 11
292.8257439743881
 21
-57.987185435828799
 31
0.0
  0
LINE
  5
1B4
  8
0
 10
295.80315830118042
 20
-59.562855310413802
 30
0.0
 11
292.82574397438611
 21
-61.69760830341022
 31
0.0
  0
ARC
  5
1B5
  8
0
 10
293.75364651202761
 20
-70.43025363876427
 30
0.0
 40
3.981511067118523
 50
226.24243683463359
 51
313.75756316536518
  0
LINE
  5
1B6
  8
0
 10
290.99999999999977
 20
-73.305990286021853
 30
0.0
 11
290.99999999999977
 21
-71.176470588235276
 31
0.0
  0
LINE
  5
1B7
  8
0
 10
296.50729302405517
 20
-74.411764705882305
 30
0.0
 11
293.7536465120275
 21
-74.411764705882305
 31
0.0
  0
LINE
  5
1B8
  8
0
 10
293.18054511163848
 20
-71.176470588235276
 30
0.0
 11
293.18054511163848
 21
-67.941176470588204
 31
0.0
  0
LINE
  5
1B9
  8
0
 10
295.80315830118019
 20
-63.83236129640671
 30
0.0
 11
292.82574397438611
 21
-61.69760830341022
 31
0.0
  0
ARC
  5
1BA
  8
0
 10
298.67431573748598
 20
-61.76473512713315
 30
0.0
 40
0.4243268062755158
 50
122.23224679872889
 51
232.8392969757243
  0
LINE
  5
1BB
  8
0
 10
291.4473273249809
 20
-55.000000000000021
 30
0.0
 11
288.49999999999977
 21
-55.000000000000021
 31
0.0
  0
LINE
  5
1BC
  8
0
 10
288.49999999999977
 20
-54.00000000000005
 30
0.0
 11
285.49999999999989
 21
-54.00000000000005
 31
0.0
  0
LINE
  5
1BD
  8
0
 10
295.80315830118269
 20
-55.852432442832317
 30
0.0
 11
292.8257439743881
 21
-57.987185435828799
 31
0.0
  0
LINE
  5
1BE
  8
0
 10
293.99168691625619
 20
-57.151225132146237
 30
0.0
 11
293.99168691625619
 21
-55.653326147505659
 31
0.0
  0
ARC
  5
1BF
  8
0
 10
293.9469199377441
 20
-55.888132888009523
 30
0.0
 40
2.3797178696897441
 50
141.27305377249431
 51
241.89179587316031
  0
LINE
  5
1C0
  8
0
 10
295.80315830118269
 20
-55.852432442832317
 30
0.0
 11
295.80315830118269
 21
-59.562855310413468
 31
0.0
  0
ARC
  5
1C1
  8
0
 10
321.0999999999998
 20
-45.80716894889099
 30
0.0
 40
0.65
 50
0.0
 51
86.566369637550423
  0
LINE
  5
1C2
  8
0
 10
312.50780038807358
 20
-44.625916632134569
 30
0.0
 11
312.50780038807358
 21
-55.653326147505638
 31
0.0
  0
LINE
  5
1C3
  8
0
 10
312.50780038807369
 20
-44.625916632134647
 30
0.0
 11
312.50780038807369
 21
-55.653326147505709
 31
0.0
  0
LINE
  5
1C4
  8
0
 10
318.49999999999977
 20
-54.0
 30
0.0
 11
315.49999999999977
 21
-54.0
 31
0.0
  0
LINE
  5
1C5
  8
0
 10
312.99999999999989
 20
-67.941176470588204
 30
0.0
 11
312.99999999999989
 21
-55.000000000000021
 31
0.0
  0
LINE
  5
1C6
  8
0
 10
308.27229479774701
 20
-59.562855310413802
 30
0.0
 11
311.24970912454131
 21
-61.69760830341022
 31
0.0
  0
LINE
  5
1C7
  8
0
 10
311.24970912454131
 20
-61.697608303407172
 30
0.0
 11
311.24970912453909
 21
-57.987185435828799
 31
0.0
  0
LINE
  5
1C8
  8
0
 10
310.24635348797159
 20
-74.411764705882305
 30
0.0
 11
307.49270697594449
 21
-74.411764705882305
 31
0.0
  0
ARC
  5
1C9
  8
0
 10
310.24635348797159
 20
-70.430253638763233
 30
0.0
 40
3.9815110671192571
 50
226.2424368346463
 51
313.75756316535711
  0
LINE
  5
1CA
  8
0
 10
308.27229479774701
 20
-63.832361296403647
 30
0.0
 11
311.24970912454131
 21
-61.697608303407172
 31
0.0
  0
LINE
  5
1CB
  8
0
 10
307.49270697594449
 20
-71.176470588235276
 30
0.0
 11
307.49270697594449
 21
-73.305990286022308
 31
0.0
  0
LINE
  5
1CC
  8
0
 10
302.03772654946579
 20
-64.736398831964152
 30
0.0
 11
308.27229479774701
 21
-63.832361296403647
 31
0.0
  0
ARC
  5
1CD
  8
0
 10
305.40113736144139
 20
-61.76473512713315
 30
0.0
 40
0.4243268062755158
 50
307.16070302427562
 51
57.767753201270999
  0
LINE
  5
1CE
  8
0
 10
312.99999999999989
 20
-73.305990286022592
 30
0.0
 11
312.99999999999989
 21
-71.176470588235276
 31
0.0
  0
LINE
  5
1CF
  8
0
 10
310.81945488836101
 20
-71.176470588235276
 30
0.0
 11
310.81945488836101
 21
-67.941176470588204
 31
0.0
  0
LINE
  5
1D0
  8
0
 10
308.27229479774468
 20
-55.852432442832317
 30
0.0
 11
311.24970912453909
 21
-57.987185435828799
 31
0.0
  0
LINE
  5
1D1
  8
0
 10
302.03772654946579
 20
-58.65881777485324
 30
0.0
 11
308.27229479774701
 21
-59.562855310413802
 31
0.0
  0
LINE
  5
1D2
  8
0
 10
302.03772654946368
 20
-54.948394907271748
 30
0.0
 11
308.27229479774468
 21
-55.852432442832317
 31
0.0
  0
LINE
  5
1D3
  8
0
 10
302.03772654946368
 20
-54.948394907271748
 30
0.0
 11
302.03772654946368
 21
-58.658817774852928
 31
0.0
  0
LINE
  5
1D4
  8
0
 10
308.27229479774468
 20
-55.852432442832317
 30
0.0
 11
308.27229479774468
 21
-59.562855310413468
 31
0.0
  0
LINE
  5
1D5
  8
0
 10
315.49999999999977
 20
-55.000000000000021
 30
0.0
 11
312.50780038807358
 21
-55.000000000000007
 31
0.0
  0
ARC
  5
1D6
  8
0
 10
310.128532953101
 20
-55.888132845362641
 30
0.0
 40
2.3797180053420761
 50
298.10820806217282
 51
38.726942292200391
  0
LINE
  5
1D7
  8
0
 10
310.30227302884799
 20
-57.151225132146237
 30
0.0
 11
310.30227302884799
 21
-55.653326147505659
 31
0.0
  0
LINE
  5
1D8
  8
0
 10
321.74999999999977
 20
-50.692831051108662
 30
0.0
 11
321.74999999999977
 21
-48.89999999999975
 31
0.0
  0
LINE
  5
1D9
  8
0
 10
320.44999999999987
 20
-48.89999999999975
 30
0.0
 11
320.44999999999987
 21
-47.599999999999781
 31
0.0
  0
LINE
  5
1DA
  8
0
 10
321.74999999999977
 20
-47.599999999999781
 30
0.0
 11
320.44999999999987
 21
-47.599999999999781
 31
0.0
  0
LINE
  5
1DB
  8
0
 10
321.74999999999977
 20
-48.89999999999975
 30
0.0
 11
320.44999999999987
 21
-48.89999999999975
 31
0.0
  0
LINE
  5
1DC
  8
0
 10
321.13892998897302
 20
-51.341664200661512
 30
0.0
 11
318.49999999999977
 21
-51.499999999999773
 31
0.0
  0
ARC
  5
1DD
  8
0
 10
321.0999999999998
 20
-50.692831051108662
 30
0.0
 40
0.65
 50
273.43363036244961
 51
0.0
  0
LINE
  5
1DE
  8
0
 10
321.74999999999977
 20
-45.80716894889099
 30
0.0
 11
321.74999999999977
 21
-47.599999999999781
 31
0.0
  0
LINE
  5
1DF
  8
0
 10
321.13892998897302
 20
-45.158335799338253
 30
0.0
 11
318.49999999999977
 21
-44.999999999999773
 31
0.0
  0
ENDSEC
  0
EOF
